Weezer - Only In Dreams Chords & Tabs

 

Only In Dreams Chords & Tabs

Weezer Chords & Tabs

Version: 2 Type: Tab 1 rating
1 star 2 stars 3 stars 4 stars 5 stars
comments

Only In Dreams Tab

   
This tab isn't perfect...if it is...it's by complete coincidence but if
you have a problem or complaint with it e-mail me at PtotheJ13@aol.com
i'll take your compliments or criticism as the situation dictates...just
know it's my first tab...so go easy on me.

Only hard part is the crazy fast picking at the interlude/outro thing

Tuning is 1/2 a step down as are almost all weezer songs, if not all

This is just rivers cuomo's part of the song...hopefully I'll get the
second guitars part soon.



eb|-3-3-3-3---3-3-3-3----------------------
Bb|-3-3-3-3---3-3-3-3-------------1-0-1-0--
Gb|-0-0-0-0---0-0-0-0---2-2-2-2---0-0-0-0--	MAIN RIFF
Db|-0-0-0-0---0-0-0-0---2-2-2-2---2-2-2-2--
Ab|-2-2-2-2---2-2-2-2---0-0-0-0---3-3-3-3--
Eb|-3-3-3-3---3-3-3-3----------------------

______________________________________________________________________________

eb|-----------------------------------------------------------------
Bb|-----------------------------------------------------------------
Gb|-4-4-2-----------5-5-4-2-2-2-2-2-4-4-2-----------5-5-4-2-2-2-2-2-	CHORUS
Db|-4-4-2-5-5-5-5-5-5-5-4-2-2-2-2-2-4-4-2-5-5-5-5-5-5-5-4-2-2-2-2-2-
Ab|-2-2-0-5-5-5-5-5-3-3-2-0-0-0-0-0-2-2-0-5-5-5-5-5-3-3-2-0-0-0-0-0-
Eb|-------3-3-3-3-3-----------------------3-3-3-3-3-----------------

eb|-----------------------------------------------------------------
Bb|-----------------------------------------------------------------
Gb|-------3-3-3-3-3-------5-5-5-5-5-4-4-2-----------5-5-6-7---------	
Db|-3-3-3-3-3-3-3-3-5-5-5-5-5-5-5-5-4-4-2-5-5-5-5-5-5-5-6-7---------
Ab|-3-3-3-1-1-1-1-1-5-5-5-3-3-3-3-3-2-2-0-5-5-5-5-5-3-3-4-5---------
Eb|-1-1-1-----------3-3-3-----------------3-3-3-3-3-----------------

______________________________________________________________________________

eb|-3-3-3-3-----------------------------------------------------------------
Bb|-3-3-3-3---3-3-3-3---2-2-2-2---1--0---1----0-----------------------------
Gb|-0-0-0-0---0-0-0-0---2-2-2-2---0--0---0----0-----------------------------	RIFF #2
Db|-0-0-0-0---0-0-0-0---2-2-2-2---2--2---2----2-----------------------------
Ab|-2-2-2-2---2-2-2-2---0-0-0-0---3--3---3----3-----------------------------
Eb|-3-3-3-3---3-3-3-3-------------------------------------------------------

______________________________________________________________________________

eb|-----------------------------------------------------------------
Bb|-----------------------------------------------------------------
Gb|-4-4-4-9-9-9-9-9-2-2-2-2-7-7-5-5---------------------------------	BRIDGE RIFF
Db|-4-4-4-9-9-9-9-9-2-2-2-2-7-7-5-5---------------------------------
Ab|-2-2-2-7-7-7-7-7-0-0-0-0-5-5-3-3---------------------------------
Eb|-----------------------------------------------------------------

eb|---
Bb|---
Gb|-4-	BRIDGE END
Db|-4-
Ab|-2-
Eb|---

______________________________________________________________________________

eb|-7-----7-----7-----7-----7-----8-----8-----8---------------------
Bb|---8-----8-----8-----8-----8-----8-----8-----8-------------------
Gb|-----7-----7-----7-----7-----7-----7-----7-----7-----------------	INTERLUDE PART #1
Db|-----------------------------------------------------------------
Ab|-----------------------------------------------------------------
Eb|-----------------------------------------------------------------

______________________________________________________________________________

eb|-----------------------------------------------------------------
Bb|-----------------------------------------------------------------
Gb|-11-(X 16)-12-(X 8)-14-(X 8)-16-(X 6)-16-------------------------	INTERLUDE PART #2
Db|-----------------------------------------(X 10)------------------
Ab|--------------------------------------14--------14-(X 8)-15-(X 8)
Eb|-----------------------------------------------------------------

eb|-----------------------------------------------------------------
Bb|-----------------------------------------------------------------
Gb|------------------------------------------------12-(X 16)-11-(X-8)
Db|-----------14-(X 8)-16-(X 28)-14-(X 4)-12-(X 8)------------------
Ab|-17-(X 24)-------------------------------------------------------
Eb|-----------------------------------------------------------------

_____________________________________________________________________________
[ Tab from: http://www.guitartabs.cc/tabs/w/weezer/only_in_dreams_tab_ver_2.html ]
eb|-----------------------------------------------------------------
Bb|-----------------------------------------------------------------
Gb|-9-(X 4)-7-(X-4)-9-(X 4)-11-(X 4)--------------------------------	INTERLUDE PART #3
Db|-----------------------------------------------------------------
Ab|-----------------------------------------------------------------
Eb|-----------------------------------------------------------------

_____________________________________________________________________________

eb|-----------------------------------------------------------------
Bb|-----------------------------------------------------------------
Gb|-11-(X 16)-12-(X 8)-14-(X 8)-12-(X 16)-14-(X 8)-17-(X 8)-16-(X 20)	INTERLUDE PART #4
Db|-----------------------------------------------------------------
Ab|-----------------------------------------------------------------
Eb|-----------------------------------------------------------------

_____________________________________________________________________________

eb|-----------------------------------------------------------------
Bb|-----------------------------------------------------------------
Gb|-17-(X 4)-19(X 16)-12-(X 4)-14-(X 2)-16-(X 2)-17-(X 8)-11-(X 8)--	INTERLUDE PART #5
Db|-----------------------------------------------------------------
Ab|-----------------------------------------------------------------
Eb|-----------------------------------------------------------------

eb|-----------------------------------------------------------------
Bb|----------13-(X 4)-12(X 2)---------13-(X 4)-12-(X 2)-------------
Gb|-12-(X 8)-----------------14-(X 2)------------------14-(X 2)-----
Db|-----------------------------------------------------------------
Ab|-----------------------------------------------------------------
Eb|-----------------------------------------------------------------

eb|-----------------------------------------------------------------
Bb|-13-(X 4)-12-(X 2)---------15-(X 8)------------------7-(X 4)-----
Gb|------------------14-(X 2)----------12-(X 8)-5-(X 8)-------------
Db|-----------------------------------------------------------------
Ab|-----------------------------------------------------------------
Eb|-----------------------------------------------------------------

eb|-----------------------------------------------------------------
Bb|-5-(X 4)-3-(X 7)-8-(X 9)---------7-(X 4)-5-(X 4)-3-(X 7)-8-(X 13)
Gb|-------------------------5-(X 8)---------------------------------
Db|-----------------------------------------------------------------
Ab|-----------------------------------------------------------------
Eb|-----------------------------------------------------------------

eb|-----------------------------------------------------------------
Bb|-10-(X 4)-12-(X 4)-10-(X 4)-8-(X 8)-11-(X 8)-12-(X 16)-8-(X 24)--
Gb|-----------------------------------------------------------------
Db|-----------------------------------------------------------------
Ab|-----------------------------------------------------------------
Eb|-----------------------------------------------------------------

_____________________________________________________________________________

eb|-----------------------------------------------------------------
Bb|-8-(X 24)-12-(X 2)-10-(X 2)-8-(X 2)-5-(X 2)----------------------
Gb|-----------------------------------------------------------------	INTERLUDE PART #6
Db|-----------------------------------------------------------------
Ab|-----------------------------------------------------------------
Eb|-----------------------------------------------------------------

_____________________________________________________________________________

eb|-----------------------------------------------------------------
Bb|-8-(X 24)-13--12--10------11--12---------------------------------
Gb|----------------------12-----------------------------------------	INTERLUDE PART #7
Db|-----------------------------------------------------------------
Ab|-----------------------------------------------------------------
Eb|-----------------------------------------------------------------




order:
wait 2 bass riffs
main riff X 14
chorus
wait 1 bass riff
riff #2
wait 8 bass riffs
chorus
wait 1 bass riff
main riff X 3
bridge X 8
bridge end
wait 1 measure
wait 1 bass riff
interlude part #1 X 4
wait 4 bass riffs
interlude part #2
interlude part #3 X 2
interlude part #4 
interlude part #5
interlude part #6 X 2
interlude part #7
wait 4 bass riffs and you're done!







Comments