Weezer - Only In Dreams Chords & Tabs

 

Only In Dreams Chords & Tabs

Weezer Chords & Tabs

Version: 5 Type: Bass Tab 0 ratings
1 star 2 stars 3 stars 4 stars 5 stars
comments

Only In Dreams Bass Tab

Ok well this is the way i play this song with my band.Its a really fun and simple song.Here goes.

(intro/verses)
g--------------------------------------------------------------------------]
d--------------------------------------------------------------------------]
a--1-1-1-44-6-6-6-64--------4-4-2-2----------------------------------------]
e-------------------4-4-4-44-----------------------------------------------]

(chorus)
g--------------------------------------------------------------------------]
d--------------------------------------------------------------------------]
a-1-1-----------2-2-1--------1-1----------2-2-1--------4-4-2-0--0-0-0-6-6-4]
e----4-2--2-2-2------4--4-4-4---4-2--2-2-2-----4--4-4-4--------------------]

g--------------------------------------------------------------------------]
d--------------------------------------------------------------------------]
a-2--2-2-2-1-1----------2-2-3-4--------------------------------------------]
e-------------4-2--2-2-2---------------------------------------------------]
[ Tab from: http://www.guitartabs.cc/tabs/w/weezer/only_in_dreams_btab_ver_5.html ]
Theres a part of this song right after the second chorus where you do this kinda
repeat thing. Here it is.I don't know how many times you do this.Figure it out.

g-------------------------------------------------------------------------]
d-------------------------------------------------------------------------]
a-1111114466666664--------44442222----------------------------------------]
e-----------------44444444------------------------------------------------]

The solo's basically the same as the verses, except it goes like this.
/=slide up
\=slide down

g--------------------------------------------------------------------------]
d--------------------------------------------------------------------------]
a-1-1-1/6-6-6\4--------4-4-2-2---------------------------------------------]
e--------------4-4-4-44----------------------------------------------------]

(outro)
g--------------------------------------------------------------------------]
d--------------------------------------------------------------------------]
a-1-1-1-44-6-6-6-64---------4--4--2--2-------------------------------------]
e------------------4-4-4-44-------------2----------------------------------]

Well that's basically it.I hope you have fun playing this.I do.Enjoy!!
Comments