Weezer - Only In Dreams Chords & Tabs

 

Only In Dreams Chords & Tabs

Weezer Chords & Tabs

Version: 2 Type: Bass Tab 0 ratings
1 star 2 stars 3 stars 4 stars 5 stars
comments

Only In Dreams Bass Tab

   
Only In Dreams By Weezer

Originally tabbed by Jar0d (jar0d@juno.com)
Corrected by Jason the Great (dawgawd@hotmail.com)
Corrected by Andrew Gunter (looptwelve12@earthlink.net)
Modified for correct tuning by Jason the Great (dawgawd@hotmail.com)

"This is the correct and only way to play this song."-that is an exact
quote from Andrew Gunter in regards to his version.  oh the arrogance.
My suggestion is to learn correct tuning before you put down others and
brag up your own INCORRECT work.

This song, like all weezer songs, is in Eb tuning

RIFF 1:

Gb|---------------------------------------|
Db|-------0h2-2-2-2-2p0-----------0-0-----|
Ab|-2-2-2---------------0-0-0-0-0-----3-3-|
Eb|---------------------------------------|

RIFF 2:

Gb|---------------------------------------|
Db|-------0h2-2-2-2-2p0-----------0-0---0-|
Ab|-2-2-2---------------0-0-0-0-0-----3---|
Eb|---------------------------------------|

CHORUS:

Gb|---------------------------------|
Db|---------------------------------|
Ab|-2-2-0-----------3-3-2-0-0-0-0-0-|x2
Eb|-------3-3-3-3-3-----------------|
[ Tab from: http://www.guitartabs.cc/tabs/w/weezer/only_in_dreams_btab_ver_2.html ]
Gb|--------------------------------------------------------|
Db|--------------------------------------------------------|
Ab|---------1-1-1-1---------3-3-3-3-2-2-0---------3-3-4-5--|
Eb|-1-1-1-1---------3-3-3-3---------------3-3-3-3----------|

CHORUS 2:

Gb|-----------------------------------|
Db|-----------------------------------|
Ab|-2-2-2-2/7-7-7-7-7-0-0-0-0-5-5-3-3-|
Eb|-----------------------------------|

BRIDGE? (i don't know what you'd call it)

Gb|-----------------------------------------------------------------|
Db|-----------------------------------------------------------------|
Ab|-2-2-2-2-2-2-2-2-7-7-7-7-7-7-7-7-0-0-0-0-0-0-0-0-5-5-5-5-3-3-3-3-|
Eb|-----------------------------------------------------------------|

OUTRO:

Gb|-----------------------------------------|
Db|-------0h2-2-2-2-2p0-----------0-0-------|
Ab|-2-2-2---------------0-0-0-0-0-----3-3---|
Eb|---------------------------------------3-|

SONG STRUCTURE:

  (some of my numbers may be a little off,
   so use your ears and listen for the right numbers)

RIFF 1 (x3)
RIFF 2
RIFF 1 (x3)
RIFF 2
RIFF 1 (x3)
RIFF 2
RIFF 1 (x3)
RIFF 2
CHORUS
RIFF 1 (x5)
RIFF 2
RIFF 1 (x3)
RIFF 2
CHORUS
RIFF 1 (x4)
CHORUS 2 (x8)
(rest)
RIFF 1 (x6)
BRIDGE (x14)
CHORUS 2 (x8)
RIFF 1 (x3)
OUTRO

_____            _____
\___ \    __    / ___/
  __\ \  /  \  / /__
  \___ \/ /\ \/ ___/
      \  /  \  /
       \/    \/

Comments