Weezer - No Other One Chords & Tabs

 

No Other One Chords & Tabs

Weezer Chords & Tabs

Version: 1 Type: Bass Tab 0 ratings
1 star 2 stars 3 stars 4 stars 5 stars
comments

No Other One Bass Tab

C.T Bass Tabs 
---------------------------------------------------

===================================================
Band: Weezer
Title: No other One
1996 Geffen Records
===================================================

---------------------------------------------------
_______________________________________________________________________

\: Slide down : <- Repeat from location of this sign.

Introduction

E: ----------------------------:-4--4----------------. 
A: ------------------------------------2--4--4--7-\-4.

Part #2 of intro
[ Tab from: http://www.guitartabs.cc/tabs/w/weezer/no_other_one_btab.html ]
E: --4--4------------------------6--4.
A: --------2--4--4--7-\-4--4--4------.

Verse

E: --4---4---4---6---6---6---4---4---4---------------.
A: --------------------------------------4---4---4---.

Part #2 of verse (She's all I got...)

E: 4---4---4---6---6---6---8---8---8---6---4---4---4.
A: -------------------------------------------------.

Part #3 of verse (She's all I got...)

E: 4---4---4---6---6---6---8---8---8-------------.
A: ------------------------------------6---8---10.

Chorus

E: 4---4---4---6---6---6---0---0---0---4---4--------.
A: --------------------------------------------7-\-4.

Tabbed by Clayton Thomson
Buzzbo24@hotmail.com

Comments