Weezer - No One Else Chords & Tabs

 

No One Else Chords & Tabs

Weezer Chords & Tabs

Version: 2 Type: Tab 0 ratings
1 star 2 stars 3 stars 4 stars 5 stars
comments

No One Else Tab

Band/Song: Weezer - No One Else
Album: Weezer(blue)
Tuning: Standard
Tabbed By: Mike, hawker489@aol.com
/=slide

Intro x1
|----------------------------
|----------------------------
|-999-999-666----------------
|-999-999-666-666-7/6/4/6/2--
|-777-666-444-----7/6/4/6/2--
|-------------777-5/4/2/4/0--

Verse x1
|-----------------------------------------------------------------------------
|-----------------------------------------------------------------------------
|-----------------------------------------------------------------------------
|-22222222-7777-7777-44444444-9999-9999-77777777-7777-7777-44444444-99999999--
|-22222222-7777-7777-44444444-9999-9999-77777777-7777-7777-44444444-99999999--
|-00000000-5555-4444-22222222-7777-5555-44444444-5555-4444-22222222-77777777--

Fill In x1
|-------------------------------
|-------------------------------
|-666666--------666666----------
|-666666-444444-666666-4-6-999--
|-444444-444444-444444-4-6-999--
|--------222222--------2-4-777--
[ Tab from: http://www.guitartabs.cc/tabs/w/weezer/no_one_else_tab_ver_2.html ]
Chorus x4
|-------------------------------------|-----play this on 3rd time only------
|-------------------------------------|-------------------------------------
|----------44444444-66666666-22222222-|----------44444444-66666666----------
|-22222222-44444444-66666666-22222222-|-22222222-44444444-66666666-4-6-999--
|-22222222-22222222-44444444-00000000-|-22222222-22222222-44444444-4-6-999--
|-00000000----------------------------|-00000000-------------------2-4-777--

(Intro x1)
(Verse x1)
(Fill In x1)
(Chorus x4)

Fill In 2
|--------------------------------------
|--------------------------------------
|-22222222-33333333-22222222-33-22-55--
|-22222222-33333333-22222222-33-22-55--
|-00000000-11111111-00000000-11-00-33--
|--------------------------------------

Solo                                                              | 11 not 1|
|----------------------------------------------------------------------------
|----------------------------------------------------------------------------
|-888-------------------------------4----444--------555-------999------------
|-----99999-666-----------6-4-2-4/6---4------666666-----77777-----1111111111-
|---------------77777-4-7----------------------------------------------------
|----------------------------------------------------------------------------

|-------------------------(16)--
|-9-10/12--9-10-9\7/9-----------
|-------------------------------
|-------------------------------
|-------------------------------
|-------------------------------

(Fill In x2)
(Chorus x4)
(Intro x1)

This is my favorite song by Weezer. I've been looking at the tabs to this
song, and either the tuning or parts of the song are wrong. I can guarantee
that this song is 99.9% correct. If anything the solo might be a little off.
Comments