Weezer - Mykel And Carli Chords & Tabs

 

Mykel And Carli Chords & Tabs

Weezer Chords & Tabs

Version: 1 Type: Bass Tab 0 ratings
1 star 2 stars 3 stars 4 stars 5 stars
comments

Mykel And Carli Bass Tab

Title: Mykel & Carli
Artist: Weezer
Album: Hear You Me; the Undone single
Tabbed by: Andrew Gunter (looptwelve12@earthlink.net)
Tuning: Regular

Member of the Bass Tab Archive Tabbing Army
http://www.basstabarchive.com

Comments: The tab for this song is pretty straight forward. There 
may be some minor variations every once in a while, but nothing major
that's worth tabbing out. The solo part is the part right after the 
drums and bass stop and then go into the solo. Well, that should be it.
Email me if you need me.

Verse:
G|------------------|------------------|------------------|------------------|
D|------------------|------------------|------------------|------------------|
A|----------2-2-2-2-|-4-4-4-4----------|----------2-2-2-2-|-4-4-4-4----------|
E|-2-2-2-2----------|----------2-2-2-2-|-2-2-2-2----------|----------2-2-2-2-|
[ Tab from: http://www.guitartabs.cc/tabs/w/weezer/mykel_and_carli_btab.html ]
G|------------------|------------------|------------------|------------------|
D|-1-1-1-1----------|------------------|-1-1-1-1----------|------------------|
A|------------------|-4-4-4-4----------|------------------|-4-4-4-4----------|
E|----------4-4-4-4-|----------2-4-2-2-|----------4-4-4-4-|----------2-2-2-2-|

Chorus:
G|------------------|------------------|------------------|------------------|
D|------------------|------------------|------------------|------------------|
A|-1---1----2-2-2-2-|-4-4-4-4----------|-1---1----2-2-2-2-|-4-4-4-4----------|
E|------------------|----------2-2-2-2-|------------------|----------2-2-2-2-|

Solo:
G|------------------|------------------|------------------|------------------|
D|------------------|------------------|------------------|------------------|
A|-4-4-4-4----------|-1---1----2-2-2-2-|-4-4-4-4----------|------------------|
E|----------2-2-2-2-|------------------|----------2-2-2-2-|------------------|

Comments