Weezer - Memories Chords & Tabs

 

Memories Chords & Tabs

Weezer Chords & Tabs

Version: 2 Type: Bass Tab

Memories Bass Tab

   
G|-----------------|
D|-----------------|
A|22222222/77777777|      x10
E|-----------------|

Chorus (All the memories)
G|---------------------------------|
D|---------------------------------|
A|7777777777777777/2222222222222222|   x3
E|---------------------------------|

Chorus Outro (I want to be there again)
G|---------------------------------|
D|-7-6-4-------4~--4444444444444444|
A|-------7-6h7---------------------|   x1
E|---------------------------------|

Verses
G|-----------------|
D|-----------------|
A|22222222/77777777|      x8
E|-----------------|

Chorus (All the memories)
G|---------------------------------|
D|---------------------------------|
A|7777777777777777/2222222222222222|   x2
E|---------------------------------|
[ Tab from: http://www.guitartabs.cc/tabs/w/weezer/memories_btab_ver_2.html ]
G|-------------------------------------------------|
D|-------------------------------------------------|
A|7777777777777777/12121212121212121212121212121212|   x1
E|-------------------------------------------------|


Chorus Outro (I want to be there again)
G|---------------------------------|
D|-7-6-4-------4~--4444444444444444|
A|-------7-6h7---------------------|   x1
E|---------------------------------|

Bridge (Now I got so many people...)
G|------------------------------------|
D|444444444/77777777-22222222---------|
A|----------------------------22222222|  x4
E|------------------------------------|

Post-Bridge Thingy
G|-9h11p9~-9h11--|
D|-------------9-|  x1
A|-------------9-|
E|---------------|

G|-------------------------------------------------|
D|-------------------------------------------------|
A|7777777777777777/12121212121212121212121212121212|   x3
E|-------------------------------------------------|


Chorus Outro (I want to be there again)
G|---------------------------------|
D|-7-6-4-------4~--4444444444444444|
A|-------7-6h7---------------------|   x1
E|---------------------------------|