Weezer - Lullaby For Wayne Chords & Tabs

 

Lullaby For Wayne Chords & Tabs

Weezer Chords & Tabs

Version: 1 Type: Bass Tab 0 ratings
1 star 2 stars 3 stars 4 stars 5 stars
comments

Lullaby For Wayne Bass Tab

Hey guys i noticed you they didnt have this sick weezer tab on here so i figured i
 hook you up.  Ummmm the songs in STANDARD tuning and is pretty easy to learn once
u get the hang of it and its also a great song for beginners.  Have Fun  Pzz

Intro
g]------------------------------------------------------------------------
d]------------------------------------------------------------------------
a]-----00000000-77777777-22222222-55555555--------------------------------
e]------------------------------------------------------------------------

g]------------------------------------------------------------------------
d]------------34-666666-43--------4---------------------------------------x2
a]-----444444--------------666666--4--------------------------------------
e]-----------------------------------22222222-----------------------------

Verse
g]------------------------------------------------------------------------
d]------------------------------------------------------------------------
a]-----00000000-77777777-22222222-55555555--------------------------------
e]------------------------------------------------------------------------

g]------------------------------------------------------------------------
d]------------34-666666-43--------4---------------------------------------x2
a]-----444444--------------666666--4--------------------------------------
e]-----------------------------------22222222-----------------------------

Chorus
g]------------------------------------------------------------------------
d]------------------------------------------------------------------------
a]-----99999999-77777777-44444444-55555555--------------------------------
e]------------------------------------------------------------------------
[ Tab from: http://www.guitartabs.cc/tabs/w/weezer/lullaby_for_wayne_btab.html ]
g]------------------------------------------------------------------------
d]------------------------------------------------------------------------
a]-----99999999-77777777-44444444-5555-7777-------------------------------
e]------------------------------------------------------------------------

Verse x2

Chorus x2

Bridge
g]------------------------------------------------------------------------
d]------------------------------------------------------------------------
a]-----22222222-77777777-44444444-99999999-55555555-77777777--4~----------
e]------------------------------------------------------------------------

g]------------------------------------------------------------------------x3
d]------------------------------------------------------------------------
a]-----4~-6~-2~------------4~-6~-9~---------------------------------------
e]-------------2~-------------------7~------------------------------------

g]------------------------------------------------------------------------
d]------------------------------------------------------------------------
a]-----44444444-66666666-22222222-22222222--------------------------------
e]------------------------------------------------------------------------

g]------------------------------------------------------------------------
d]------------------------------------------------------------------------
a]-----44444444-66666666-99999999-----------------------------------------
e]--------------------------------7777777---------------------------------

g]------------------------------------------------------------------------
d]------------------------------------------------------------------------
a]-----22222222-77777777-44444444-99999999-55555555-77777777--------------
e]------------------------------------------------------------------------

Chorus x2

g]------------------------------------------------------------------------
d]------------------------------------------------------------------------
a]-4~---------------------------------------------------------------------
e]------------------------------------------------------------------------
Comments