Weezer - Knock Down Drag Out Chords & Tabs

 

Knock Down Drag Out Chords & Tabs

Weezer Chords & Tabs

Version: 1 Type: Tab 0 ratings
1 star 2 stars 3 stars 4 stars 5 stars
comments

Knock Down Drag Out Tab

   
Song: Knock Down Drag Out

Artist: Weezer

Kick ass song, ain't seen the tab for this anywhere so thought i'd do it.
Standard tuning......this is my first tab ok so go easy!!!!!!!





E----------------------------------------------------------------|
B----------------------------------------------------------------|
G------------------3-3-3-----------5-5-5-5-5-5-5-5-5-------------|
D--6-6-6---3-3-3---3-3-3---5-5-5---5-5-5-5-5-5-5-5-5-------------|
A--6-6-6---3-3-3---1-1-1---5-5-5---3-3-3-3-3-3-3-3-3-------------|
E--4-4-4---1-1-1-----------3-3-3---------------------------------|

E----------------------------------------------------------------|
B----------------------------------------------------------------|
G-5-5-5-5-5-5-5-5---------------------------------5-5-5-5-5-5-5-5|
D-5-5-5-5-5-5-5-5-3-3-3-3-3-3-3-3-5-5-5-5-5-5-5-5-5-5-5-5-5-5-5-5|
A-3-3-3-3-3-3-3-3-3-3-3-3-3-3-3-3-5-5-5-5-5-5-5-5-3-3-3-3-3-3-3-3|
E-----------------1-1-1-1-1-1-1-1-3-3-3-3-3-3-3-3----------------|

E----------------------------------------------------------------|
B----------------------------------------------------------------|
G-5-5-5-5-5-5-5-5---------------------------------5-5-5-5-5-5-5-5|
D-5-5-5-5-5-5-5-5-3-3-3-3-3-3-3-3-5-5-5-5-5-5-5-5-5-5-5-5-5-5-5-5|
A-3-3-3-3-3-3-3-3-3-3-3-3-3-3-3-3-5-5-5-5-5-5-5-5-3-3-3-3-3-3-3-3|
E-----------------1-1-1-1-1-1-1-1-3-3-3-3-3-3-3-3----------------|

E----------------------------------------------------------------|
B----------------------------------------------------------------|
G----------------------------------------------------------------|
D-2-2-2-2-2-2-2-2-3-3-3-3-3-3-3-3-5-5-5-5-5-5-5-5-6-6-6-6-6-6-6-6|
A-2-2-2-2-2-2-2-2-3-3-3-3-3-3-3-3-5-5-5-5-5-5-5-5-6-6-6-6-6-6-6-6|
E-0-0-0-0-0-0-0-0-1-1-1-1-1-1-1-1-3-3-3-3-3-3-3-3-4-4-4-4-4-4-4-4|

E----------------------------------------------------------------|
B----------------------------------------------------------------|
G-----------------7-7-7-7-7-7-7-7--------------------------------|
D-7-7-7-7-7-7-7-7-7-7-7-7-7-7-7-7--5-----------------------------|
A-7-7-7-7-7-7-7-7-5-5-5-5-5-5-5-5--5-x16-------------------------|
E-5-5-5-5-5-5-5-5------------------3-----------------------------|

E----------------------------------------------------------------|
B----------------------------------------------------------------|
G-5-5-5-5-5-5-5-5---------------------------------5-5-5-5-5-5-5-5|
D-5-5-5-5-5-5-5-5-3-3-3-3-3-3-3-3-5-5-5-5-5-5-5-5-5-5-5-5-5-5-5-5|
A-3-3-3-3-3-3-3-3-3-3-3-3-3-3-3-3-5-5-5-5-5-5-5-5-3-3-3-3-3-3-3-3|
E-----------------1-1-1-1-1-1-1-1-3-3-3-3-3-3-3-3----------------|

E----------------------------------------------------------------|
B----------------------------------------------------------------|
G-5-5-5-5-5-5-5-5---------------------------------5-5-5-5-5-5-5-5|
D-5-5-5-5-5-5-5-5-3-3-3-3-3-3-3-3-5-5-5-5-5-5-5-5-5-5-5-5-5-5-5-5|
A-3-3-3-3-3-3-3-3-3-3-3-3-3-3-3-3-5-5-5-5-5-5-5-5-3-3-3-3-3-3-3-3|
E-----------------1-1-1-1-1-1-1-1-3-3-3-3-3-3-3-3----------------|

E----------------------------------------------------------------|
B----------------------------------------------------------------|
G----------------------------------------------------------------|
D-2-2-2-2-2-2-2-2-3-3-3-3-3-3-3-3-5-5-5-5-5-5-5-5-6-6-6-6-6-6-6-6|
A-2-2-2-2-2-2-2-2-3-3-3-3-3-3-3-3-5-5-5-5-5-5-5-5-6-6-6-6-6-6-6-6|
E-0-0-0-0-0-0-0-0-1-1-1-1-1-1-1-1-3-3-3-3-3-3-3-3-4-4-4-4-4-4-4-4|
[ Tab from: http://www.guitartabs.cc/tabs/w/weezer/knock_down_drag_out_tab.html ]
E----------------------------------------------------------------|
B----------------------------------------------------------------|
G-----------------7-7-7-7-7-7-7-7--------------------------------|
D-7-7-7-7-7-7-7-7-7-7-7-7-7-7-7-7--5-----------------------------|
A-7-7-7-7-7-7-7-7-5-5-5-5-5-5-5-5--5-x16-------------------------|
E-5-5-5-5-5-5-5-5------------------3-----------------------------|

E----------------------------------------------------------------|
B----------------------------------------------------------------|
G------------------3-3-3-----------5-5-5-5-5-5-5-5-5-------------|
D--6-6-6---3-3-3---3-3-3---5-5-5---5-5-5-5-5-5-5-5-5-------------|
A--6-6-6---3-3-3---1-1-1---5-5-5---3-3-3-3-3-3-3-3-3-------------|
E--4-4-4---1-1-1-----------3-3-3---------------------------------|


SOLO.

E----------------------------------------------------------------|
B----------------------------------------------------------------|
G---9-9-9--5~-5~-5~--5-4-4--------5~-----------------------------|
D---------------------------7--9---------------------------------|
A----------------------------------------------------------------|
E----------------------------------------------------------------|

E----------------------------------------------------------------|
B----------------------------------------------------------------|
G---9-9-9--5~-5~-5~--5-4-4--------5~-----------------------------|
D---------------------------7--9---------------------------------|
A----------------------------------------------------------------|
E----------------------------------------------------------------|

E----------------------------------------------------------------|
B----------------------------------------------------------------|
G----------------------------------------------------------------|
D-2-2-2-2-2-2-2-2-3-3-3-3-3-3-3-3-5-5-5-5-5-5-5-5-6-6-6-6-6-6-6-6|
A-2-2-2-2-2-2-2-2-3-3-3-3-3-3-3-3-5-5-5-5-5-5-5-5-6-6-6-6-6-6-6-6|
E-0-0-0-0-0-0-0-0-1-1-1-1-1-1-1-1-3-3-3-3-3-3-3-3-4-4-4-4-4-4-4-4|

E----------------------------------------------------------------|
B----------------------------------------------------------------|
G-----------------7-7-7-7-7-7-7-7--------------------------------|
D-7-7-7-7-7-7-7-7-7-7-7-7-7-7-7-7--5-----------------------------|
A-7-7-7-7-7-7-7-7-5-5-5-5-5-5-5-5--5-x16-------------------------|
E-5-5-5-5-5-5-5-5------------------3-----------------------------|

E----------------------------------------------------------------|
B----------------------------------------------------------------|
G-5-5-5-5-5-5-5-5---------------------------------5-5-5-5-5-5-5-5|
D-5-5-5-5-5-5-5-5-3-3-3-3-3-3-3-3-5-5-5-5-5-5-5-5-5-5-5-5-5-5-5-5|
A-3-3-3-3-3-3-3-3-3-3-3-3-3-3-3-3-5-5-5-5-5-5-5-5-3-3-3-3-3-3-3-3|
E-----------------1-1-1-1-1-1-1-1-3-3-3-3-3-3-3-3----------------|

E----------------------------------------------------------------|
B----------------------------------------------------------------|
G-5-5-5-5-5-5-5-5---------------------------------5-5-5-5-5-5-5-5|
D-5-5-5-5-5-5-5-5-3-3-3-3-3-3-3-3-5-5-5-5-5-5-5-5-5-5-5-5-5-5-5-5|
A-3-3-3-3-3-3-3-3-3-3-3-3-3-3-3-3-5-5-5-5-5-5-5-5-3-3-3-3-3-3-3-3|
E-----------------1-1-1-1-1-1-1-1-3-3-3-3-3-3-3-3----------------|

E----------------------------------------------------------------|
B----------------------------------------------------------------|
G-5-5-5-5-5-5-5-5---------------------------------5-5-5-5-5-5-5-5|
D-5-5-5-5-5-5-5-5-3-3-3-3-3-3-3-3-5-5-5-5-5-5-5-5-5-5-5-5-5-5-5-5|
A-3-3-3-3-3-3-3-3-3-3-3-3-3-3-3-3-5-5-5-5-5-5-5-5-3-3-3-3-3-3-3-3|
E-----------------1-1-1-1-1-1-1-1-3-3-3-3-3-3-3-3----------------|


I strongly believe that this tab is 100% accurate. Any probs or if
you want the backing rhythm for the solo e-mail sniggy via 
www.wattershed.ezhoster.com 
Comments