Weezer - Knock Down Drag Out Chords & Tabs

 

Knock Down Drag Out Chords & Tabs

Weezer Chords & Tabs

Version: 1 Type: Bass Tab 0 ratings
1 star 2 stars 3 stars 4 stars 5 stars
comments

Knock Down Drag Out Bass Tab

   
Weezer - Knock-Down Drag-Out
Tabbed By: Jason Lee
EMail: loser_guitarist@hotmail.com
album: The Green Album (2000)

   Bb    F          C     G          C
G|-----------------|----------------|----------------|----------------|
D|-----------------|----------------|----------------|----------------|
A|-1-1-------------|3-3-------------|3---3-----3---3-|3---------------|
E|-------1---1-1-1-|------3---3-3-3-|----------------|----------------|
   1 + 2 + 3 + 4 + |1 + 2 + 3 + 4 + |1 + 2 + 3 + 4 + |1 + 2 + 3 + 4 + |

   C     A C     A  F     E F     E  G     E G     E  C     A C     A
G|-----------------|----------------|----------------|----------------|
D|-----------------|----------------|----------------|----------------|
A|-3-3-3-0-3-3-3-0-|----------------|----------------|3-3-3-0-3-3-3-0-|
E|-----------------|1-1-1-0-1-1-1-0-|3-3-3-0-3-3-3-0-|----------------|
   1 + 2 + 3 + 4 + |1 + 2 + 3 + 4 + |1 + 2 + 3 + 4 + |1 + 2 + 3 + 4 + |
Any day now,   you   call me...
Say you love me...

   E                F                G                G#
G|-----------------|----------------|----------------|----------------|
D|-----------------|----------------|----------------|----------------|
A|-----------------|----------------|----------------|----------------|
E|-0-0-0-0-0-0-0-0-|1-1-1-1-1-1-1-1-|3-3-3-3-3-3-3-3-|4-4-4-4-4-4-4-4-|
   1 + 2 + 3 + 4 + |1 + 2 + 3 + 4 + |1 + 2 + 3 + 4 + |1 + 2 + 3 + 4 + |
It's all that I can do right now...

   A                D                C
G|-----------------|----------------|----------------|----------------|
D|-----------------|0-0-0-0-0-0-0-0-|----------------|----------------|
A|-0-0-0-0-0-0-0-0-|----------------|3---3-----3---3-|3---------------|
E|-----------------|----------------|----------------|----------------|
   1 + 2 + 3 + 4 + |1 + 2 + 3 + 4 + |1 + 2 + 3 + 4 + |1 + 2 + 3 + 4 + |
   Meet you on the other side...

   C     A C     A  F     E F     E  G     E G     E  C     A C     A
G|-----------------|----------------|----------------|----------------|
D|-----------------|----------------|----------------|----------------|
A|-3-3-3-0-3-3-3-0-|----------------|----------------|3-3-3-0-3-3-3-0-|
E|-----------------|1-1-1-0-1-1-1-0-|3-3-3-0-3-3-3-0-|----------------|
   1 + 2 + 3 + 4 + |1 + 2 + 3 + 4 + |1 + 2 + 3 + 4 + |1 + 2 + 3 + 4 + |
Take no prisoners here in...
That we're waging on me...

   E                F                G                G#
G|-----------------|----------------|----------------|----------------|
D|-----------------|----------------|----------------|----------------|
A|-----------------|----------------|----------------|----------------|
E|-0-0-0-0-0-0-0-0-|1-1-1-1-1-1-1-1-|3-3-3-3-3-3-3-3-|4-4-4-4-4-4-4-4-|
   1 + 2 + 3 + 4 + |1 + 2 + 3 + 4 + |1 + 2 + 3 + 4 + |1 + 2 + 3 + 4 + |
It's all that I can do right now...

   A                D                C
G|-----------------|----------------|----------------|----------------|
D|-----------------|0-0-0-0-0-0-0-0-|----------------|----------------|
A|-0-0-0-0-0-0-0-0-|----------------|3---3-----3---3-|3---------------|
E|-----------------|----------------|----------------|----------------|
   1 + 2 + 3 + 4 + |1 + 2 + 3 + 4 + |1 + 2 + 3 + 4 + |1 + 2 + 3 + 4 + |
   Meet you on the other side...
[ Tab from: http://www.guitartabs.cc/tabs/w/weezer/knock_down_drag_out_btab.html ]
   Bb    F          C     G          C
G|-----------------|----------------|----------------|----------------|
D|-----------------|----------------|----------------|----------------|
A|-1-1-------------|3-3-------------|3---3-----3---3-|3---------------|
E|-------1---1-1-1-|------3---3-3-3-|----------------|----------------|
   1 + 2 + 3 + 4 + |1 + 2 + 3 + 4 + |1 + 2 + 3 + 4 + |1 + 2 + 3 + 4 + |

   C     A C     A  F     E F     E  G     E G     E  C     A C     A
G|-----------------|----------------|----------------|----------------|
D|-----------------|----------------|----------------|----------------|
A|-3-3-3-0-3-3-3-0-|----------------|----------------|3-3-3-0-3-3-3-0-|
E|-----------------|1-1-1-0-1-1-1-0-|3-3-3-0-3-3-3-0-|----------------|
   1 + 2 + 3 + 4 + |1 + 2 + 3 + 4 + |1 + 2 + 3 + 4 + |1 + 2 + 3 + 4 + |

   C     A C     A  F     E F     E  G     E G     E  C     A C     A
G|-----------------|----------------|----------------|----------------|
D|-----------------|----------------|----------------|----------------|
A|-3-3-3-0-3-3-3-0-|----------------|----------------|3-3-3-0-3-3-3-0-|
E|-----------------|1-1-1-0-1-1-1-0-|3-3-3-0-3-3-3-0-|----------------|
   1 + 2 + 3 + 4 + |1 + 2 + 3 + 4 + |1 + 2 + 3 + 4 + |1 + 2 + 3 + 4 + |

   E                F                G                G#
G|-----------------|----------------|----------------|----------------|
D|-----------------|----------------|----------------|----------------|
A|-----------------|----------------|----------------|----------------|
E|-0-0-0-0-0-0-0-0-|1-1-1-1-1-1-1-1-|3-3-3-3-3-3-3-3-|4-4-4-4-4-4-4-4-|
   1 + 2 + 3 + 4 + |1 + 2 + 3 + 4 + |1 + 2 + 3 + 4 + |1 + 2 + 3 + 4 + |
It's all that I can do right now...

   A                D                C
G|-----------------|----------------|----------------|----------------|
D|-----------------|0-0-0-0-0-0-0-0-|----------------|----------------|
A|-0-0-0-0-0-0-0-0-|----------------|3---3-----3---3-|3---------------|
E|-----------------|----------------|----------------|----------------|
   1 + 2 + 3 + 4 + |1 + 2 + 3 + 4 + |1 + 2 + 3 + 4 + |1 + 2 + 3 + 4 + |
   Meet you on the other side...

   C     A C     A  F     E F     E  G     E G     E  C     A C     A
G|-----------------|----------------|----------------|----------------|
D|-----------------|----------------|----------------|----------------|
A|-3-3-3-0-3-3-3-0-|----------------|----------------|3-3-3-0-3-3-3-0-|
E|-----------------|1-1-1-0-1-1-1-0-|3-3-3-0-3-3-3-0-|----------------|
   1 + 2 + 3 + 4 + |1 + 2 + 3 + 4 + |1 + 2 + 3 + 4 + |1 + 2 + 3 + 4 + |

   C     A C     A  F     E F     E  G     E G     E  C     A C     A
G|-----------------|----------------|----------------|----------------|
D|-----------------|----------------|----------------|----------------|
A|-3-3-3-0-3-3-3-0-|----------------|----------------|3-3-3-0-3-3-3-0-|
E|-----------------|1-1-1-0-1-1-1-0-|3-3-3-0-3-3-3-0-|----------------|
   1 + 2 + 3 + 4 + |1 + 2 + 3 + 4 + |1 + 2 + 3 + 4 + |1 + 2 + 3 + 4 + |

   C
G|-----------------||
D|-----------------||
A|-3---------------||
E|-----------------||
   1 + 2 + 3 + 4 + ||

tabbed out 10/28/02 by =bert=
Comments