Weezer - Keep Fishing Chords & Tabs

 

Keep Fishing Chords & Tabs

Weezer Chords & Tabs

Version: 3 Type: Tab 0 ratings
1 star 2 stars 3 stars 4 stars 5 stars
comments

Keep Fishing Tab

   
Keep Fishin'

By Kitch

Standard tuning

Intro

B  E(7)  B  E(7)

With fill on E chord:

e-----------------------------
B-----------------------------
G--9 p 8---11---8-------------
D--------9--------------------
A-----------------------------
E-----------------------------

Verse
[ Tab from: http://www.guitartabs.cc/tabs/w/weezer/keep_fishing_tab_ver_3.html ]
B    E(7) B    E(7) (x 2)
C#m  F#   C#m  F#
B    G#m  E    C#m  F# (add G--5-4-- to F#)  
B    G#m  E    C#m  F#

Chorus

E    B    E    B
E    B    G#m  E  C#m  F#

Solo

e-------------------------------7-7--5-7---7---7-------
B--9~9--7~7-----9-7-9-7~7-6-7---7---------7---6---5----
G--9~9--7~7-----------------------------------------7--
D------------(9)---------------------------------------
A------------------------------------------------------
E------------------------------------------------------
Comments