Weezer - Keep Fishing Chords & Tabs

 

Keep Fishing Chords & Tabs

Weezer Chords & Tabs

Version: 1 Type: Tab 0 ratings
1 star 2 stars 3 stars 4 stars 5 stars
comments

Keep Fishing Tab

----------------------------------------------------------------------
			     Keep Fishin - Weezer
----------------------------------------------------------------------

By:Philip Patching


e|--------------------------------------------------------------------
B|--------------------------------------------------------------------
G|------------------9--9--9--9----9-8---11----------------------------
D|---9--9--9--9-----9--9--9--9----------------------------------------
A|---9--9--9--9-----7--7--7--7----------------------------------------
E|---7--7--7--7-------------------------------------------------------


e|--------------------------------------------------------------------
B|--------------------------------------------------------------------
G|---6--6--6--6-------------------------------------------------------
D|---6--6--6--6---4--4--4--4------------------------------------------
A|---4--4--4--4---4--4--4--4------------------------------------------
E|----------------2--2--2--2------------------------------------------
[ Tab from: http://www.guitartabs.cc/tabs/w/weezer/keep_fishing_tab.html ]
e|--------------------------------------------------------------------
B|--------------------------------------------------------------------
G|--4--4--------6--6---------4--4-------------------------------------
D|--4--4--2-2---6--6---4--4--4--4-------------------------------------
A|--2--2--2-2---4--4---4--4--2--2-------------------------------------
E|--------0-0----------2--2-------------------------------------------

e|--------------------------------------------------------------------
B|--------------------------------------------------------------------
G|-----------4-4-4-4--------------------------------------------------
D|--2-2-2-2--4-4-4-4-------------------------------------------------
A|--2-2-2-2--2-2-2-2--------------------------------------------------
E|--0-0-0-0-----------------------------------------------------------

e|--------------------------------------------------------------------
B|--------------------------------------------------------------------
G|-----------6-6-6-------4--4-----------------------------------------
D|--2-2-2-2--6-6-6--4-4--4--4--2-2------------------------------------
A|-2-2-2-2--4-4-4---4-4--2--2--2-2------------------------------------
E|-0-0-0-0---------2-2---------0-0------------------------------------

======================================================================
Comments