Weezer - Keep Fishing Chords & Tabs

 

Keep Fishing Chords & Tabs

Weezer Chords & Tabs

Version: 4 Type: Bass Tab 0 ratings
1 star 2 stars 3 stars 4 stars 5 stars
comments

Keep Fishing Bass Tab

   
TITLE: Keep Fishin (based on demo recording)
ARTIST: Weezer
TABBED BY: weezer4life
-standard tuning

/=slide up
\=slide down
h=hammer-on

INTRO: (00:05)
G|-----------------------------------------------------------------------------------|
D|--------------------------53-53----------------------------------------------------|
A|----------3-3-3-3-----------5--5---------------------------------------------------|
E|--3-3-3-3---------3-3-3-3----------------------------------------------------------|

VERSE:
|-----------------------------------------------------------------------------------|
|-----------------------------------------------------------------------------------|
|---------3-3-3-3---------3-3-5-3-0-0-0-0-5-5-5-5-0-0-0-0-5-5-5-5-------------------|
|-3-3-3-3---------3-3-3-3-----------------------------------------------------------|

CHORUS:
|-----------------------------------------------------------------------------------|
|-----------/7--------------/7------------------------------------------------------|
|-----3-0-5----5------3-0-5----5----------------------------------------------------|
|-3-0-------------3-0---------------------------------------------------------------|

VERSE:
|-----------------------------------------------------------------------------------|
|-----------------------------------------------------------------------------------|
|---------3-3-3-3---------3-3-5-3-0-0-0-0-5-5-5-5-0-0-0-0-5-5-5-5-------------------|
|-3-3-3-3---------3-3-3-3-----------------------------------------------------------|

CHORUS:
|-----------------------------------------------------------------------------------|
|-----------/7--------------/7------------------------------------------------------|
|-----3-0-5----5------3-0-5----5----------------------------------------------------|
|-3-0-------------3-0---------------------------------------------------------------|

|-----------------------------------------------------------------------------------|
|-----------------------------------------------------------------------------------|
|-33333333----------33333333----------33333333----------3-3-0-0-5-5-5-5-------------|
|----------33333333----------33333333----------33330000-----------------------------|

|-----------------------------------------------------------------------------------|
|-----------------------------------------------------------------------------------|
|-----------------------------------------------------------------------------------|
|-777-555-444-222-------------------------------------------------------------------|
[ Tab from: http://www.guitartabs.cc/tabs/w/weezer/keep_fishing_btab_ver_4.html ]
SOLO/BRIDGE:
|-----------------------------------------------------------------------------------|
|-----------------------------------------------------------------------------------|
|---------3-3-3-3---------3-3-5-3-0-0-0-0-5-5-5-5-0-0-0-0-5-5-5-5-------------------|
|-3-3-3-3---------3-3-3-3-----------------------------------------------------------|

CHORUS:
|-----------------------------------------------------------------------------------|
|-----------/7--------------/7------------------------------------------------------|
|-----3-0-5----5------3-0-5----5----------------------------------------------------|
|-3-0-------------3-0---------------------------------------------------------------|

|-----------------------------------------------------------------------------------|
|-----------------------------------------------------------------------------------|
|-33333333----------33333333----------33333333----------3-3-0-0-5-5-5-5-------------|
|----------33333333----------33333333----------33333333-----------------------------|

|-----------------------------------------------------------------------------------|
|-----------------------------------------------------------------------------------|
|-----------------------------------------------------------------------------------|
|-777-555-444-222-------------------------------------------------------------------|

OUTRO:
|-----------------------------------------------------------------------------------|
|---------------------------------------------------------------------53-53---------|
|---------3-3-3-3---------3-3-3-3---------3-3-3-3---------3-3-3-3-------5--5--------|
|-3-3-3-3---------3-3-3-3---------3-3-3-3---------3-3-3-3---------3----------3------|


Any comments, questions, compliments, criticisms, or damnations email me at: 
chico@thekillingtons.net===============


Song: Keep Fishin
Artist: Weezer
Album: Maladroit
Tuning: I'm guessing standard, but I could be wrong

Intro (with drums) played very fast
G-----------------------------
D-----------------------------
A---------5-3---------------
E--030-5--------------------

Verse ("You'll never be..")
G----------------------------------------------------------
D----------------------------------------------------------
A----------------7-7-7-0-7-0--------------4-4-4-0-4-0
E---7-7-7-0-7-0--------------4-4-4-0-4-0--------------

Verse II ("Its just the thought of you..")
G----------------------------------------
D----------------------------------------
A-2-22-------------2-22--------------
E-------4-44--0-00------2-22--------

^^ you can make your own little fill at the end of that

Chorus ("O Girl when im in love with youŠ.")
G-------------------------------------------------
D-------------------------------------------------
A------------22222222-------------22222222
E-00000000------------00000000------------
Comments