Weezer - Keep Fishing Chords & Tabs

 

Keep Fishing Chords & Tabs

Weezer Chords & Tabs

Version: 3 Type: Bass Tab 0 ratings
1 star 2 stars 3 stars 4 stars 5 stars
comments

Keep Fishing Bass Tab

WEEZER-KEEP FISHIN' BASS TABS

INTRO (REPEAT x2)
G-----------2-3-4---------------------------------------------------------------
D--2-3-4-3-----------2-3-4-3----------------------------------------------------
A-3-----------------3-----------0-1-2-3-----------------------------------------
E-------------------------------------------------------------------------------

VERSE-
G-------------------------------------------------------------------------------
D--------3-3-3-------3-3-3--0-0-0--5-5-3-2-0-0-0-5-5-3-2-0----------------------
A-3-3-3-------3-3-3-------------------------------------------------------------
E-------------------------------------------------------------------------------

CHORUS (PLAY X2)
G-------------------------------------------------------------------------------
D-----------3-3-3-0-0-----------------------------------------------------------
A-3-3-0-0-----------------------------------------------------------------------
E-------------------------3-3-3-------------------------------------------------
[ Tab from: http://www.guitartabs.cc/tabs/w/weezer/keep_fishing_btab_ver_3.html ]
VERSE 2
G ------------------------------------------------------------------------------
D-3-3-3--------3-3-3---------3-3-3---------3-3-0-0------------------------------
A--------2-2-2---------2-2-2-------2-2-0-0--------------------------------------
E---------------------------------------------------------3-3-------------------

DURING GUITAR SOLO
G-------------------------------------------------------------------------------
D--------3-3-3--------3-3-3-----------------------------------------------------
A-3-3-3-------3-3-3-------------------------------------------------------------
E-------------------------------------------------------------------------------
(SECOND HALF OF VERSE AFTER THAT)

(REPEAT CHORUS)

(REPEAT VERSE 2)

VERSE 3 (PLAY x8)
G------------2-3-4--------------------------------------------------------------
D---2-3-4-3---------------------------------------------------------------------
A-3-----------------------------------------------------------------------------
E-------------------------------------------------------------------------------
Comments