Weezer - Keep Fishing Chords & Tabs

 

Keep Fishing Chords & Tabs

Weezer Chords & Tabs

Version: 1 Type: Bass Tab 0 ratings
1 star 2 stars 3 stars 4 stars 5 stars
comments

Keep Fishing Bass Tab

Weezer
Keep fishing 
Tabbed by Ewan M

  Intro          
G|----------|---------|
D|----------|---6-7-9-|
A|----6-7-9-|-7-------| x2
E|--7-------|---------|
   
[ Tab from: http://www.guitartabs.cc/tabs/w/weezer/keep_fishing_btab.html ]
  Verse (Never be a better kind..)  (Waste my days..)
G|-------------------------------- G|----------------|
D|-------------------------------- D|----------------|                 
A|---------777777--------7-6-4-2-- A|444444-7-6-4-2--|
E|--777777--------777777---------- E|----------------|                                                                  
  Chorus (Just the thought of you..)
G|------------------------------|                    
D|------------------------------|                
A|-2-22-----------4-44----------| x2                                   
E|------4-44-0-00------22222222-|

  Bridge (oh girl i'm in love with you..)  (save you from..)
G|----------------------------------|    G|-------|                    
D|----------------------------------|    D|-------|
A|----------------------6-7-9-7-6---| x3 A|---4---| x1
E|-0-0-4-5-7-5-4-0--7-7-----------7-|    E|-0---2-|

  Outro
G|------------------------------|    G|-------------------|
D|------------------------------|    D|------------6-7-9--|
A|--------777777--------7-6-4-2-|x1  A|---6-7-9--7--------| x8
E|-777777--------777777---------|    E|-7-----------------|
                        
End on E|-7-

*Song order*
Intro
verse
Chorus
verse
Chorus
Bridge
verse (with guitar solo)
Chorus
Bridge
Outro
Comments