Weezer - Keep Fishin Chords & Tabs

 

Keep Fishin Chords & Tabs

Weezer Chords & Tabs

Version: 1 Type: Tab 1 rating
1 star 2 stars 3 stars 4 stars 5 stars
comments

Keep Fishin Tab

this is the version off the cd


intro 

guit 1                      guit 2      

---------------------        ---------------          
---------------------        ---------------      
------99999------9999        -9-8---11-8----  
-9999-99999-9999-9999        -----9---------
-9999-77777-9999-7777        ---------------
-7777-------7777-----        ---------------




for the verse re[eat what guit 1 does

pre chorus
[ Tab from: http://www.guitartabs.cc/tabs/w/weezer/keep_fishin_tab.html ]
-----------------
-----------------
-6-6-6-6---------  repeat
-6-6-6-6--4-4-4-4
-4-4-4-4--4-4-4-4
----------2-2-2-2



chorus

------------------------
------------------------
------------------------
-9-9--6-6--4-4--2-2--4-4
-9-9--6-6--4-4--2-2--4-4
-7-7--4-4--2-2--0-0--2-2




solo

-----------------------------------------------
-9-7-----9-7-9-7--6-7--12-12-10-12---12--12----
-9-7-------------------------------11--10---8-9
-----9-7---------------------------------------
-----------------------------------------------
-----------------------------------------------






jeremy gaudet , age 13 , pei canada


j_gaudet@hotmail.com


Comments