Weezer - Jamie Chords & Tabs

 

Jamie Chords & Tabs

Weezer Chords & Tabs

Version: 1 Type: Tab 0 ratings
1 star 2 stars 3 stars 4 stars 5 stars
comments

Jamie Tab

   
weezer - jamie
Tuned down 1/2 step

(Verse 1)
-------------------|-------------------|---
-------------------|-------------------|--
-------------------|--7---7---7---7
---5---5---5---5--|---7---7---7---7--|    x2 clean
---5---5---5---5--|---5---5---5---5--|
---3---3---3---3--|-------------------|

Verse 1 x 10 electric

(verse 2)
-------------------|-------------------|------------------|-
-------------------|-------------------|------------------|-
-------------------|--7---7---7---7-----9---9---9---9---
---5---5---5---5--|---7---7---7---7--|--9---9---9---9--|
---5---5---5---5--|---5---5---5---5--|--7---7---7---7--|
---3---3---3---3--|-------------------|-------------|

-------------------|
-------------------|
---5---5---5---5-|
---5---5---5---5-|  x2
---3---3---3---3-|
-------------------|
verse 1 x 2


(Pre chorus)
------------|------------|------------|------------|--------
------------|------------|------------|------------|--------
---8-8-8-8-8|------------|------------|------------|--------
---8-8-8-8-8|---8-8-8-8-8|-- 6-6-6-6-6—--4-4-4-4-4-|          x 1
---6 6 6 6 6|---8-8-8-8-8|---6-6-6-6-6|--4-4-4-4-4
------------|---6-6-6-6-6| |-4-4-4-4-4-|-2-2-2-2-2|

(chorus)
---------------------------------------------------------------
-------------------------------------------------------------
-------------------------------|-9---9---9---9---9---9---9---9
--5---5---5---5---5---5---5---5|-9---9---9---9—--9---9---9---9
--5---5---5---5---5---5---5---5|-7---7---7---7---7---7---7---7
--3---3---3---3---3---3---3---3|--------------------
[ Tab from: http://www.guitartabs.cc/tabs/w/weezer/jamie_tab.html ]
------------------------------------|----------------------------
-------------------7---7---7---7|---5---5---5---5-------------
--7---7---7---7-|--7---7---7---7|---5---5---5---5---------------
--7---7---7---7-|--5---5---5---5|---3---3---3---3---------------
--5---5---5---5-|-----------------|----------------------------
                                                                      x1
-------------------------------|----------------------------
-------------------------------|-7---7---7---7---7---7--7--7----
--5---5---5---5---5---5---5---5|-7---7---7---7---7---7--7--7
--5---5---5---5---5---5---5---5|-5---5---5---5---5---5--5--5
--3---3---3---3---3---3---3---3|----------------------------

------------------------------------------------------------
------------------------------------------------------------
--9---9---9---9---9---9---9---9|-5--5---5---5---5---5---5--5
--9---9---9---9---9---9---9---9|-5--5---5---5---5---5---5--5
--7---7---7---7---7---7---7---7|-3--3---3---3---3---3---3--3

Verse 1 x 12

verse 2 x 2

verse 1 x 2

prechorus

chorus x 2

(Verse 3)
---------------------------------|-------------------------------------------------
---------------------------------|-------------------------------------------------
-----------7--7--9-9-*-9--5-5----|---------------7--7--7--7--------------7--7--7--7
--5--5-*-5-7--7--9-9-*-9--5-5----|---5--5--5--5--7--7--7--7--5--5--5--5--7--7--7--7  x2
--5--5-*-5-5--5--7-7-*-7--3-3----|---5--5--5--5--5--5--5--5--5--5--5--5--5--5--5--5
--3--3-*-3-----------------------|---3--3--3--3--------------3--3--3--3------------

solo ( verse 1 in background x 8 )

verse 2 x 4

chorus x 2

verse 3 x 2

verse 1 x 2
 
prechorus

verse 1 x2

prechorus  (end on G)
Comments