Weezer - In The Garage Chords & Tabs

 

In The Garage Chords & Tabs

Weezer Chords & Tabs

Version: 5 Type: Tab 0 ratings
1 star 2 stars 3 stars 4 stars 5 stars
comments

In The Garage Tab

   
In the Garage
as performed by Weezer
Words and Music by Rivers Cuomo

4/4 Time
All strings tuned down one half step
(All chords relative to standard tuning)


Intro

    (G)         (D)            (Am)        (Em)
eb||-------------------------|-------0-----------------|
Bb||-0-----3--------------0--|-1-----------0-----------|
F#||----0-----0--2-----------|----2-----2-----0-----0--|
C#||----------------4--------|-------------------2-----|
Ab||-------------5-----5-----|-0-----------------------|
Eb||-3-----------------------|-------------0-----------|

   (G)         (D)            (C) (C/B)(C/A)(G)
eb|-------------------------|-------------------------|
Bb|-0-----3-----------0-----|-------------------------|
F#|----0-----0--2--------2--|-0-----0--0--0-----------|
C#|----------------4--------|----2--------------------|
Ab|-------------5-----------|-3-----2--0--------------|
Eb|-3-----------------------|-------------3-----------|


Verse

    C5/G              D5/A    E5
eb|-------------------------|-------------------------|
Bb|-------------------------|-------------------------|
F#|-5--5--5--5--5--5--7--7--|-9--9--9--9--9--9--9--9--|
C#|-5--5--5--5--5--5--7--7--|-9--9--9--9--9--9--9--9--|
Ab|-3--3--3--3--3--3--5--5--|-7--7--7--7--7--7--7--7--|
Eb|-3--3--3--3--3--3--5--5--|-7--7--7--7--7--7--7--7--|
   I've got the Dugeon Master's Guide.

C5/G                 D5/A  E5
I've got a twelve sided die.
C5/G        D5/A
I've got Kitty Pryde

    G           C5/G     G                C5/G     G
eb|-------------------------|-------------------------|
Bb|-------------------------|-------------------------|
F#|-4--4--4--4--5--5--5--4--|-4--4--4--4--5--5--5--4--|
C#|-5--5--5--5--5--5--5--5--|-5--5--5--5--5--5--5--5--|
Ab|-5--5--5--5--3--3--3--5--|-5--5--5--5--3--3--3--5--|
Eb|-3--3--3--3--3--3--3--3--|-3--3--3--3--3--3--3--3--|
            and Nightcrawler too.    Waiting there for me,

           D5 E       E5             D5 E    E5
 |eb|-------------| |----------------------|----------------------|
2|Bb|-------------|4|-8--------8-----------|-8--------8-----------|
-|F#|-------------|-|----7--------7--------|----7--------7-----7--|
4|C#|-------7-----|4|-------9--------7-----|-------9--------9-----|
 |Ab|-5--5--5-----| |----------------5-----|----------------------|
 |Eb|-3--3-----0--| |-------------------0--|----------------------|
         yes I do,                   I  do.

C5/G                D5/A    E5
I've got posters on the wall.
C5/G                  D5/A   E5
My fav'rite rock group, Kiss.
C5/G        D5/A G
I've got Ace Frehley,
C5/G           G      C5/G          G
I've got Peter Criss. Waiting there for me,
    D5 E E5 D5 E E5
yes I  do,  I  do.


Chorus

    G5          D5/A          A5          E5
eb|-------------------------|-------------------------|
Bb|-------------------------|-------------------------|
F#|-------------------------|-------------------------|
C#|-------------0--0--0--0--|-2--2--2--2--------------|
Ab|-5--5--5--5--0--0--0--0--|-0--0--0--0--2--2--2--2--|
Eb|-3--3--3--3--------------|-------------0--0--0--0--|
    In    the   g'rage        I     feel  safe,

G5     D5/A
no one cares a

 C5   G/B A5 G5
eb|-------------------------|
Bb|-------------------------|
F#|-------------------------|
C#|-5--5--5-----------------|
Ab|-3--3--2--0--5--5--5--5--|
Eb|-------------3--3--3--3--|
    bout  my    ways.

G5     D5/A         A5  E5    G5     D5/A
In the g'rage where I belong, no one hears me

    C5   G/B A5 G5            A5                         G5
eb|-------------------------|--------------------------|-----------------------|
Bb|-------------------------|--------------------------|-----------------------|
F#|-------------------------|--------------------------|-----------------------|
C#|-5--5--5-----------------|--------------------------|-----------------------|
Ab|-3--3--2--0--5-----------|-7-----------7------------|-5---------------------|
Eb|-------------3-----------|-5-----------5------------|-3---------------------|
    sing  this  song.         In          the            g'rage.


Interlude (Repeat Intro)


Verse

(No guitar)

(C5/G)              (D5/A)(E5)
I've got an electric guitar.
(C5/G)      (D5/A)   (E5)
I play my stupid songs.
(C5/G)          (D5/A)   (G)
I write these stupid words,
[ Tab from: http://www.guitartabs.cc/tabs/w/weezer/in_the_garage_tab_ver_5.html ]
    (G)                  G                C5/G     G
eb|-------------------------|-------------------------|
Bb|-------------------------|-------------------------|
F#|----------------------4--|(4)-4--4--4--5--5--5--4--|
C#|----------------------5--|(5)-5--5--5--5--5--5--5--|
Ab|----------------------5--|(5)-5--5--5--3--3--3--5--|
Eb|----------------------3--|(3)-3--3--3--3--3--3--3--|
         and I love ev'ryone.             Waiting there for me,

G5       E5 D5  E5
yes I do,   I do.


Chorus

G5     D5/A   A5     E5    G5     D5/A   C5   G/B A5 G5
In the g'rage I feel safe, no one cares about my     ways.
G5     D5/A         A5  E5    G5     D5/A     C5   G/B A5 G5
In the g'rage where I belong, no one hears me sing this   song.
A5     G5      A5     G5
In the g'rage. In the g'rage. Yeah!


Guitar Solo

    C5/G             D5/A    E5
eb|------------------------|-------------------------|
Bb|----5-------------7--9--|(9)----12--------15--17\-|
F#|----7bbbbbbbbbbbb-9b-11b|(b)-14b--16bb-17b-19b----|
C#|------------------------|-------------------------|
Ab|------------------------|-------------------------|
Eb|------------------------|-------------------------|

    C5/G             D5/A    E5
eb|-0---0--0-0-0--0--0--0--|(0)---/19\---------/18\--|
Bb|-3/5-5--5-5-5--5--7--9--|(9)----------/18\--------|
F#|------------------------|-------------------------|
C#|------------------------|-------------------------|
Ab|------------------------|-------------------------|
Eb|------------------------|-------------------------|

    C5/G             D5/A    G        C5/G       G
eb|-0---0--0-0-0--0--------|:|-------------------------|:|
Bb|-3/5-5--5-5-5--5--7--8--|:|--/15-13-12h13p12--------|:|
F#|------------------------|:|------------------14-12--|:|
C#|------------------------|:|-------------------------|:|
Ab|------------------------|:|-------------------------|:|
Eb|------------------------|:|-------------------------|:|
                              (Play Above Two Times)

      G    D5         E5            D5          E5
 |eb|-------------| |-------------------------|------------1517b~-br-15-|
2|Bb|---15--12-15b|4|(b)~~~-brp12-------------|-----15-15/17----------17|
-|F#|-------------|-|------------15-14-12--12-|-14/16-16----------------|
4|C#|-------------|4|--------------------14---|-------------------------|
 |Ab|-------------| |-------------------------|-------------------------|
 |Eb|-------------| |-------------------------|-------------------------|


Chorus

G5     D5/A   A5     E5    G5     D5/A   C5   G/B A5 G5
In the g'rage I feel safe, no one cares about my     ways.
G5     D5/A         A5  E5    G5     D5/A     C5   G/B A5 G5
In the g'rage where I belong, no one hears me sing this   song.


Outro-Chorus

G5     D5/A   A5     E5    G5     D5/A    C5   G/B A5 G5
In the g'rage I feel safe, no one laughs about my     ways.
G5     D5/A         A5  E5    G5     D5/A
In the g'rage where I belong, no one hears me,

      E5       D5 C5            G5          D5/A
eb|:|-------------------------|-------------------------|:|
Bb|:|-------------------------|-------------------------|:|
F#|:|-------------------------|-------------------------|:|
C#|:|-9--9--9--7--5--5--5--5--|-------------0--0--0--0--|:|
Ab|:|-7--7--7--5--3--3--3--3--|-5--5--5--5--0--0--0--0--|:|
Eb|:|-------------------------|-3--3--3--3--------------|:|(Play Two Times)
      no    one   hears me,     no    one   hears me,

    C5   G/B A5 G5            A5                        G5
eb|-------------------------|-------------------------|------------------------|
Bb|-------------------------|-------------------------|------------------------|
F#|-------------------------|-------------------------|------------------------|
C#|-5--5--5-----------------|-------------------------|------------------------|
Ab|-3--3--2--0--5-----------|-7-----------7-----------|-5----------------------|
Eb|-------------3-----------|-5-----------5-----------|-3----------------------|
    sing  this  song.

    A5                        G5
eb|-------------------------|------------------------||
Bb|-------------------------|------------------------||
F#|-------------------------|------------------------||
C#|-------------------------|------------------------||
Ab|-7-----------7-----------|-5----------------------||
Eb|-5-----------5-----------|-3----------------------||
Comments