Weezer - In The Garage Chords & Tabs

 

In The Garage Chords & Tabs

Weezer Chords & Tabs

Version: 4 Type: Tab 0 ratings
1 star 2 stars 3 stars 4 stars 5 stars
comments

In The Garage Tab

   
-------------------------------------------------------------------------------
			     WEEZER IN THE GARAGE
-------------------------------------------------------------------------------
Tabbed by:wez fan 316

Tuning:standard

 this played be for the solo wich  i dont know doesnt sound tough
e|---------------------------11----------------------------------------------|
B|--11---14-------11----12-------11------14----------------------------------|
G|-----------13-------------------------------15-----11--11--11--11----------|
D|---------------------------------------------------------------------------|
A|---------------------------------------------------------------------------|
E|---------------------------------------------------------------------------|
     play 2x             then  sorry the first power chords should be played 1
fret acrooss to the GD and A strings the last 16 chords are unchanged to what i
said
[ Tab from: http://www.guitartabs.cc/tabs/w/weezer/in_the_garage_tab_ver_4.html ]
e|-----------------------------------------------------------------------------
b|--444444--66--888888--------444444---66--------------------------------------
G|--444444--66--888888--------444444---66--------44----------66------99--------
D|--222222--44--666666--------222222---44----44--44--0--44---66--66--99-99-864-
A|-------------------------------------------44--22--0--44---44--66--77-99-864-
E|-------------------------------------------22------0--22-------44-----77-642-
   play this 2x       sorry but i dont know the solo yet

e|---------------------------------------------------------------------------
B|--------7--7------7--------------------------------------------------------
G|--66-/--8----8-------------------------------------------------------------
D|--66-/--8------8-----------------------------------------------------------
A|--44-/--6------------------------------------------------------------------
E|---------------------------------------------------------------------------

| /  slide up
| \  slide down
| h  hammer-on
| p  pull-off
| ~  vibrato
| +  harmonic
| x  Mute note
===============================================================================
Comments