Weezer - In The Garage Chords & Tabs

 

In The Garage Chords & Tabs

Weezer Chords & Tabs

Version: 2 Type: Tab 0 ratings
1 star 2 stars 3 stars 4 stars 5 stars
comments

In The Garage Tab

   
In The Garage  Weezer
By Rivers Cuomo

Heres the correct version of In the Garage, although Im not quite sure about the solo.

e--------------------------0-------------------------------
B-0----3--------------1---------0---------0----3----------0
G----0---0--2------------2---2-----0----0----0---0--2-----2
D--------------4----4-----------------2----------------4---
A-----------5-----5---0-----------------------------5------
E-3-----------------------------0---------3----------------



e----------------!   
B----------------!   
G---0-----0--0--0!          
D------2---------!            
A---3-----2--0---!            
E---------------3!            


G                        Am   E
I've got a dungeon master's guide
G              Am E
I've got 12 sided die
G        Am    E
I've got Kitty Pryde
C                G
and Nightcrawler too
C                 G       E G    E G           *Play this
waiting there for me, yes I do*, I do*         e-3---3----
                                               B--3---3---
                                               G---0---0--

G                Am     E
I've got posters on the wall
G                Am    E
My favorite rock group, Kiss
G        Am  E
I've got Ace Frehley
C              G
I've got Peter Criss
C                 G   E     G    E G
Waiting there for me, yes I do*, I do*




G      D
In the Garage
Am     Em
I feel safe
G      D      C C/B C/Am G
No one cares about  my  ways

G         D         Am  Em
In the garage where I belong
[ Tab from: http://www.guitartabs.cc/tabs/w/weezer/in_the_garage_tab_ver_2.html ]
G      D        C C/B C/Am G
No one hears me sing this song

A5/E A5/E G
In  the garage


Play intro


G          Am            E                         
I got an electric guitar

G           Am    E  
I play my stupid songs

G            Am       E
I write these stupid words

    C            G
and I love everyone

C                 G       E G * E G *         
Waiting there for me, yes I do, I do

Solo

--------------------------------------------------------------
----------------------------------------------12-12-12-12-----
9-9-9-9-9-11-12--14b-14b-14b-9-9-9-9-9-11-12--14-14-14-14b16--
--------------------------------------------------------------
--------------------------------------------------------------
--------------------------------------------------------------

--------------------------------------------------------------
-----------------15-13-12h13p12-------15-13-12h13p12-----15-12
-9-9-9-9-9-11-12----------------14-12---------------14-12-----
--------------------------------------------------------------
--------------------------------------------------------------
--------------------------------------------------------------

---------------------------------------------15-18b19-18-15-12
15b17-15-14-12-15-14-13-12-------12/13-15-17------------------
---------------------------12/14------------------------------
--------------------------------------------------------------
--------------------------------------------------------------
--------------------------------------------------------------

Ending: Am/E Am/E G   Am/E Am/E G

Thanks to http://shakti.trincoll.edu and deathwish@moa.com 
Comments welcome. 
Comments