Weezer - In The Garage Chords & Tabs

 

In The Garage Chords & Tabs

Weezer Chords & Tabs

Version: 1 Type: Tab 0 ratings
1 star 2 stars 3 stars 4 stars 5 stars
comments

In The Garage Tab

   
Weezer - In The Garage.
 Tabbed by Mark Waldron (weezerville@hotmail.com).
  
Tune Down 1/2 Step:
(1)=Eb  (4)=Db
(2)=Bb  (5)=Ab
(3)=Gb  (6)=Eb

|----------------------------|        
|-0-----3------------------0-|                   
|----0-----0---2-------------|  
|------------------4---------|                      
|--------------5-------5-----|                  
|-3--------------------------|
                              
|--------0-------------------|
|-1--------------0-----------|
|----2-------2-------0-----0-|
|-----------------------2----|
|-0--------------------------|
|----------------0-----------|
                              
|----------------------------|-------------------|
|-0-----3--------------0-----|-------------------|
|----0-----0---2-----------2-|-0-------0---0---0-|
|------------------4---------|-----2-------------|
|--------------5-------------|-3-------2---0-----|
|-3--------------------------|-----------------3-|

|-------------------------|--------------------------|
|-------------------------|--------------------------|
|-5--5--5--5--5--5--7--7--|--9--9--9--9--9--9--9--9--|
|-5--5--5--5--5--5--7--7--|--9--9--9--9--9--9--9--9--|
|-3--3--3--3--3--3--5--5--|--7--7--7--7--7--7--7--7--|
|-3--3--3--3--3--3--5--5--|--7--7--7--7--7--7--7--7--|

|-------------------------|--------------------------|
|-------------------------|--------------------------|
|-5--5--5--5--5--5--7--7--|--9--9--9--9--9--9--9--9--|
|-5--5--5--5--5--5--7--7--|--9--9--9--9--9--9--9--9--|
|-3--3--3--3--3--3--5--5--|--7--7--7--7--7--7--7--7--|
|-3--3--3--3--3--3--5--5--|--7--7--7--7--7--7--7--7--|

|--------------------------|
|--------------------------|
|--5--5--5--5--5--5--7--7--|
|--5--5--5--5--5--5--7--7--|
|--3--3--3--3--3--3--5--5--|
|--3--3--3--3--3--3--5--5--|

|--------------------------|
|--------------------------|
|--4--4--4--4--5--5--5--4--|
|--5--5--5--5--5--5--5--5--|
|--5--5--5--5--5--5--5--5--|
|--3--3--3--3--3--3--3--3--|

|--------------------------|--------------|
|--------------------------|--------------|
|--4--4--4--4--5--5--5--4--|--------------|
|--5--5--5--5--5--5--5--5--|--------7-----|
|--5--5--5--5--5--5--5--5--|--5--5--5-----|
|--3--3--3--3--3--3--3--3--|--3--3-----0--|

let ring----------|
|----------------------------|-----------------------|
|-8----------8---------------|-8----------8----------|
|-----7----------7-----------|----7----------7-----7-|
|---------9----------7-------|--------9---------9----|
|--------------------5-------|-----------------------|
|------------------------0---|-----------------------|

|------------------------------------------------|
|------------------------------------------------|
|------------------------------------------------|
|-------------0--0--0--0--2--2--2--2-------------|
|-5--5--5--5--0--0--0--0--0--0--0--0--2--2--2--2-|
|-3--3--3--3--------------------------0--0--0--0-|

|------------------------|------------------------|
|------------------------|------------------------|
|------------------------|------------------------|
|-------------0--0--0--0-|-5--5--5----------------|
|-5--5--5--5--0--0--0--0-|-3--3--2--0--5--5--5--5-|
|-3--3--3--3-------------|-------------3--3--3--3-|
[ Tab from: http://www.guitartabs.cc/tabs/w/weezer/in_the_garage_tab.html ]
|------------------------|------------------------|
|------------------------|------------------------|
|------------------------|------------------------|
|-------------0--0--0--0-|-2--2--2--2-------------|
|-5--5--5--5--0--0--0--0-|-0--0--0--0--2--2--2--2-|
|-3--3--3--3-------------|-------------0--0--0--0-|

|---------------------------------------|
|---------------------------------------|
|---------------------------------------|
|-------------0--0--0--0--5--5--5-------|
|-5--5--5--5--0--0--0--0--3--3--2--0--5-|
|-3--3--3--3--------------------------3-|

|-----------------------|------------|
|-----------------------|------------|
|-----------------------|------------|
|-----------------------|------------|
|-7----------7----------|-5----------|
|-5----------5----------|-3----------|

     full        full         full
|-----/-----------/------------/---|
|-5--/--------7--/---------9--/----|
|-7-/---------9-/---------11-/-----|
|----------------------------------|
|----------------------------------|
|----------------------------------|

      full          full         full         full
|------/-------------/------------/------------/-----|
|-----/-----12------/------------/----15------/-17-\\-|
|-14-/----------16-/---------17-/---------19-/-------|
|----------------------------------------------------|
|----------------------------------------------------|
|----------------------------------------------------|

|-0-------0---0---0---0---0---0---0-|
|-3-/-5---5---5---5---5---5---7---9-|
|-----------------------------------|
|-----------------------------------|
|-----------------------------------|
|-----------------------------------|

|-----/-19-\\-----------/-18-\\-|
|--------------/-18-\\---------|
|-----------------------------|
|-----------------------------|
|-----------------------------|
|-----------------------------|

|-0-------0---0---0---0---0---------|
|-3-/-5---5---5---5---5---5---7---8-|
|-----------------------------------|
|-----------------------------------|
|-----------------------------------|
|-----------------------------------|

|-------------------------------|
|-/-15---13--12^13^12-----------|
|-----------------------14---12-|
|-------------------------------|
|-------------------------------|
|-------------------------------|

|-------------------------------|
|-/-15---13--12^13^12-----------|
|-----------------------14---12-|
|-------------------------------|
|-------------------------------|
|-------------------------------|

                 full
|-----------------/--|
|-/-15---12---15-/---|
|--------------------|
|--------------------|
|--------------------|
|--------------------|

  full-\\
|--|----\\---------------------------|
|-15---(15)^12----------------------|
|---------------15--14--12-------12-|
|---------------------------14------|
|-----------------------------------|
|-----------------------------------|

                                full  full
                                 /     / \\
|------------------------15--17-/--17-/-(17)--15-----|
|--------15-------15^17---------------------------17-|
|-14^16------16--------------------------------------|
|----------------------------------------------------|
|----------------------------------------------------|
|----------------------------------------------------| 
:: Ultimate Guitar Archive :: 
http://www.ultimate-guitar.com 



Comments