Weezer - In The Garage Live Chords & Tabs

 

In The Garage Live Chords & Tabs

Weezer Chords & Tabs

Version: 1 Type: Tab 2 ratings
1 star 2 stars 3 stars 4 stars 5 stars
comments

In The Garage Live Tab

#----------------------------------PLEASE NOTE--------------------------------#
#This file is the author's own work and represents their interpretation of the#
#song. You may only use this file for private study, scholarship, or research.#
#-----------------------------------------------------------------------------#
#-- File created with Instab - http://www.pconline.com/~smcarey/instab.html --#
#-----------------------------------------------------------------------------#

Author/Artist: Weezer
Title: In The Garage (Live)
Album: Weezer(Blue)
Transcribed by: Steven Gross
Tuned down 1/2 step
Song Order:
 Intro
 Verse1(x2)
 Chorus(x2)    do * 2nd time only
 Solo1
 Verse2
 Chorus(x2)    do * 2nd time only
 Solo2
 Chorus(x3)
 End Chorus

----------------------0-------------------------------------------------------
-0---3----------0h1----------------0---3-------0------------------------------
---0---0-2----------2---2-0-----0----0---0-2-----2--0---0---0-----------------
-----------4----------------0-2--------------4--------2---0-------------------
---------5---5--0--------------------------5--------3---2---------------------
-3------------------------0--------3------------------------3-----------------
 Intro (Guitar 2) -acoustic                                                   

----------------------------------------------------------------------------|-
----------------------------------------------------------------------------|-
-5-5-5-5-5-5-7-7-9-9-9-9-9-9--5-5-5-5-5-5-7-7-9-9\----------5-5-5-5-5-5-7-7-|-
-5-5-5-5-5-5-7-7-9-9-9-9-9-9--5-5-5-5-5-5-7-7-9-9\-2-2-2-2--5-5-5-5-5-5-7-7-|-
-3-3-3-3-3-3-5-5-7-7-7-7-7-7--3-3-3-3-3-3-5-5-7-7\-2-2-2-2--3-3-3-3-3-3-5-5-|-
---------------------------------------------------0-0-0-0------------------|-
 Verse1 (Guitar 1 P.M.) -this part is mainly distorted bass                   

-------------------------------------|----------------------------------|-----
-------------------------------------|----------------------------------|-----
-------------5-5-5---------5-5-5-----|7\---8-----8---7\---8-----8-------|-----
-5-5-5-5-5-5-5-5-5-5-5-5-5-5-5-5-5-5-|7\-2---7-----7-7\-2---7-----7---7-|-----
-5-5-5-5-5-5-3-3-3-5-5-5-5-3-3-3-5-5-|5\-2-----9-----5\-2-----9-----9---|-----
-3-3-3-3-3-3-------3-3-3-3-------3-3-|---0--------------0---------------|-----
 Verse1 (Guitar 1 & 2) -no longer P.M.                                        

-----------------------------------------------------------------|------------
-----------------------------------------------------------------|------------
---------7-7-7-7-2-2-2-2-----------------7-7-7-7-5-5-4\2---------|-2---2------
-5-5-5-5-7-7-7-7-2-2-2-2-2-2-2-2-5-5-5-5-7-7-7-7-5-5-4\2-5-------|-2---2---5--
-5-5-5-5-5-5-5-5-0-0-0-0-2-2-2-2-5-5-5-5-5-5-5-5-3-3-2\0-5-------|-0---0---5--
-3-3-3-3-----------------0-0-0-0-3-3-3-3-----------------3-------|---------3--
 Chorus                                                            *          

------------------------------------------------------------------------------
-0-3--------------------------------------------------------------------------
-----2-2/4/5/9\/4v-4/7/2-2/4-0-0-0--------------------------------------------
------------------------------------------------------------------------------
------------------------------------------------------------------------------
------------------------------------------------------------------------------
 Solo1 (Guitar 1) Guitar 2 plays intro over this                              
[ Tab from: http://www.guitartabs.cc/tabs/w/weezer/in_the_garage_live_tab.html ]
------------------------------------------------------------------------------
------------------------------------------------------------------------------
-5-5-5-5-5-5-7-7--------------5-5-5-5-5-5-7-7--------------5-5-5-5-5-5-7-7----
-5-5-5-5-5-5-7-7-2-2-2-2-2-2--5-5-5-5-5-5-7-7-2-2-2-2-2-2--5-5-5-5-5-5-7-7-5--
-3-3-3-3-3-3-5-5-2-2-2-2-2-2--3-3-3-3-3-3-5-5-2-2-2-2-2-2--3-3-3-3-3-3-5-5-5--
-----------------0-0-0-0-0-0------------------0-0-0-0-0-0------------------3--
 Verse2 (This is all bass, but Guitar 1 can play it P.M.)                     

-----------------|-------------------|----------------------------------|-----
-----------------|-------------------|----------------------------------|-----
-----------5-5-5-|---------5-5-5-----|-7\---8-----8---7\---8-----8-----7|-----
-5-5-5-5-5-5-5-5-|-5-5-5-5-5-5-5-5-5-|-7\-2---7-----7-7\-2---7-----7----|-----
-5-5-5-5-5-3-3-3-|-5-5-5-5-3-3-3-5-5-|-5\-2-----9-----5\-2-----9-----9--|-----
-3-3-3-3-3-------|-3-3-3-3-------3-3-|----0--------------0--------------|-----
                   Enter Guitar 1                                             

------------------------------------------------------------------------------
-3/-5-5-5/-7/-9/-12/--14/--15/---17/---19vvvv-3/-5-5-5/-7/-9/-18\-/-17\-/-19v-
-------------------12/--14/---15/---17/---------------------------------------
------------------------------------------------------------------------------
------------------------------------------------------------------------------
------------------------------------------------------------------------------
 Solo2 (Guitar 1)                                                             

------------------------------------------------------------------------------
-3/-5-5-5/-7/-8/-15-13-12h13p12-------15-13-12h13p12-------15----17vvvv-------
--------------------------------14-12----------------14-12----16--------------
------------------------------------------------------------------------------
------------------------------------------------------------------------------
------------------------------------------------------------------------------
                                                                              

----------------------------------15-17b19r17-15-17b19vvv-15------------------
-------------12-------15----15/17----------------------------17---------------
-15-14-12-------14b16----16---------------------------------------------------
----------14------------------------------------------------------------------
------------------------------------------------------------------------------
------------------------------------------------------------------------------
                                                                              

------------------------------------------------------------------------------
------------------------------------------------------------------------------
---------7-7-7-7-2-2-2-2-----------------7-7-7-7-----7-7-5-5-5-5---------7-7--
-5-5-5-5-7-7-7-7-2-2-2-2-2-2-2-2-5-5-5-5-7-7-7-7-2-2-7-7-5-5-5-5-5-5-5-5-7-7--
-5-5-5-5-5-5-5-5-0-0-0-0-2-2-2-2-5-5-5-5-5-5-5-5-2-2-5-5-3-3-3-3-5-5-5-5-5-5--
-3-3-3-3-----------------0-0-0-0-3-3-3-3---------0-0-------------3-3-3-3------
 End Chorus                                                                   

-----------------------------------------------------|------------------------
-----------------------------------------------------|------------------------
-7-7-----7-7-5-5-5-5---------7-7-7-7-5-5-4\2---------|-2--2-----2--2----------
-7-7-2-2-7-7-5-5-5-5-5-5-5-5-7-7-7-7-5-5-4\2-5-------|-2--2--5--2--2--5-------
-5-5-2-2-5-5-3-3-3-3-5-5-5-5-5-5-5-5-3-3-2\0-5-------|-0--0--5--0--0--5-------
-----0-0-------------3-3-3-3-----------------3-------|-------3--------3-------
                                                                              

Comments