Weezer - I Do Chords & Tabs

 

I Do Chords & Tabs

Weezer Chords & Tabs

Version: 1 Type: Tab 2 ratings
1 star 2 stars 3 stars 4 stars 5 stars
comments

I Do Tab

#----------------------------------PLEASE NOTE--------------------------------#
#This file is the author's own work and represents their interpretation of the#
#song. You may only use this file for private study, scholarship, or research.#
#-----------------------------------------------------------------------------#
#-- File created with Instab - http://www.pconline.com/~smcarey/instab.html --#
#-----------------------------------------------------------------------------#

Author/Artist: weezer
Title: i do
Album: bonus on green album
Transcribed by: mark wilson
Email: wilson_mark83@hotmail.com

this just covers the main melody of the song and you can play all the way through with it. Just play the intro for the chorus. happy hunting.
[ Tab from: http://www.guitartabs.cc/tabs/w/weezer/i_do_tab.html ]
------------------------------------------------------------------------------
-----/3--------------------3-------------5-----5/7-8-8-8\7-7-7----------------
-4-2----4-2----------4-2-4---2---4-5-4-5---4-------------------7--------------
-------------5-5--------------------------------------------------------------
------------------------------------------------------------------------------
------------------------------------------------------------------------------
                                                                              

------------------------------------------------------------------------------
-5/7-8-8-8\-7-7-7-------------------------------------------------------------
------------------7-----------------------------------------------------------
------------------------------------------------------------------------------
------------------------------------------------------------------------------
------------------------------------------------------------------------------
                                                                              

Comments