Weezer - Holiday Chords & Tabs

 

Holiday Chords & Tabs

Weezer Chords & Tabs

Version: 1 Type: Bass Tab 0 ratings
1 star 2 stars 3 stars 4 stars 5 stars
comments

Holiday Bass Tab

   
holiday by weezer
Tabbed by Jason (dawgawd@hotmail.com)

Eb Tuning, the way it SHOULD be

VERSE

Gb|-------------------------------------------------|
Db|-------------------------------------------------|
Ab|-------------------------------------------------| x 3
Eb|-0-0-0-0-0-2-4-4-4-4-4-4-5-5-5-5-5-5-7-7-7-5-7-5-|

Gb|-------------------------------------------------|
Db|-------------------------------------------------|
Ab|-------------------------------------------------|
Eb|-0-0-0-0-0-2-4-4-4-4-4-4-5-5-5-5-5-5-7-7-7-7-7-7-|

CHORUS

Gb|-------------------------------------------|
Db|-----6-6-6-6-6-6---------------------------|
Ab|-----------------7-7-7-7-7-7-7-------------| (repeat as necessary)
Eb|-0-4---------------------------5-5-5-5-5-5-|
[ Tab from: http://www.guitartabs.cc/tabs/w/weezer/holiday_btab.html ]
Gb|-------------------------|
Db|-------------------------|
Ab|-----------2-3-3-3-3-3-2-| (repeat as necesary)
Eb|-0-0-0-0-0---------------|

BRIDGE

Gb|--------------------|
Db|----1-2-------------|
Ab|-4--------------0-2-| (repeat)
Eb|---------2-4--4-----|

RIGHT AFTER THAT...

Gb|-------------------------|
Db|-------------------------|
Ab|-7-7-7-7-7---------------| (repeat)
Eb|-----------7-8-8-8-8-8-7-|

OUTRO

Gb|--------------------------------------|
Db|--------------------------------------|
Ab|---4-2--------------------------------|
Eb|-5-----2(bend 1/4 step and release)-0-|

this may not be entirely right, but i'd stake my life on it
being more accurate than the one that was here before.

(note: on the one that was here before, he tabbed his Eb notes on
 an entirely wrong octave)

Comments