Weezer - Hit Me Baby One More Time Chords & Tabs

 

Hit Me Baby One More Time Chords & Tabs

Weezer Chords & Tabs

Version: 2 Type: Tab 0 ratings
1 star 2 stars 3 stars 4 stars 5 stars
comments

Hit Me Baby One More Time Tab

   
-------------------------------------------------------------------------------
	              WEEZER - Hit Me Baby One More Time 
                        Originaly By: Britany Spears
-------------------------------------------------------------------------------
Tabbed by: JP Bourgon
AOL/AIM Screen Name: FRTYoz2Freedumb

Tuning:Standard (EADGBE)

Verse and Chorus (strumming pattern changes in chorus, listen to song to figure it out)
 
e|-2-2-2-2-2-2-2-2-2-2--0-0-0-0-0-0-0-0-0-0--2-2-2-2-2-2-2-2-2----|
B|-2-2-3-2-2-3-2-3-3-2--2-2-2-2-2-2-2-2-2-2--3-3-3-3-3-3-3-3-3----|
G|-4-4-4-4-4-4-4-4-4-4--3-3-3-3-3-3-3-3-3-3--2-2-2-2-2-2-2-2-2----|
D|-4-4-4-4-4-4-4-4-4-4--4-4-4-4-4-4-4-4-4-4--0-0-0-0-0-0-0-0-0----|
A|-2-2-2-2-2-2-2-2-2-2--0-0-0-0-0-0-0-0-0-0-----------------------|
E|----------------------------------------------------------------|

e|--------0-0-0-0-------------------------------------------------|
B|-0-0-0--2-2-2-2-------------------------------------------------|
G|-1-1-1--3-3-3-3-------------------------------------------------|
D|-2-2-2--4-4-4-4-------------------------------------------------|
A|-2-2-2--0-0-0-0-------------------------------------------------|
E|-0-0-0----------------------------------------------------------|

Bridge
[ Tab from: http://www.guitartabs.cc/tabs/w/weezer/hit_me_baby_one_more_time_tab_ver_2.html ]
e|-2-2-2-2-2-2-2-2-2-2--0-0-0-0-0-0-0-0-0-0--2-2-2-2-2-2-2-2-2----|
B|-2-2-3-2-2-3-2-3-3-2--2-2-2-2-2-2-2-2-2-2--3-3-3-3-3-3-3-3-3----|
G|-4-4-4-4-4-4-4-4-4-4--3-3-3-3-3-3-3-3-3-3--2-2-2-2-2-2-2-2-2----|
D|-4-4-4-4-4-4-4-4-4-4--4-4-4-4-4-4-4-4-4-4--0-0-0-0-0-0-0-0-0----|
A|-2-2-2-2-2-2-2-2-2-2--0-0-0-0-0-0-0-0-0-0-----------------------|
E|----------------------------------------------------------------|

e|--------0-0-0-0--3-3-3-3-3-3-3--0-0-0-0-0-0-0--3-3-3-3-3-3-3----|
B|-0-0-0--2-2-2-2--3-3-3-3-3-3-3--2-2-2-2-2-2-2--3-3-3-3-3-3-3----|
G|-1-1-1--3-3-3-3--0-0-0-0-0-0-0--2-2-2-2-2-2-2--0-0-0-0-0-0-0----|
D|-2-2-2--4-4-4-4--0-0-0-0-0-0-0--2-2-2-2-2-2-2--0-0-0-0-0-0-0----|
A|-2-2-2--0-0-0-0--2-2-2-2-2-2-2--0-0-0-0-0-0-0--2-2-2-2-2-2-2----|
E|-0-0-0-----------3-3-3-3-3-3-3-----------------3-3-3-3-3-3-3----|

                      
e|--------0-0-0-0----------------------------2--------------------|
B|-0-0-0--2-2-2-2----------------------------3--------------------|
G|-1-1-1--3-3-3-3----------------------------4--------------------|
D|-2-2-2--4-4-4-4-------------------End On---4--------------------|
A|-2-2-2--0-0-0-0----------------------------2--------------------|
E|-0-0-0----------------------------------------------------------|
                                     
| /  slide up
| \  slide down
| h  hammer-on
| p  pull-off
| ~  vibrato
| +  harmonic
| x  Mute note
===================================================================
Comments