Weezer - Haunt You Every Day Chords & Tabs

 

Haunt You Every Day Chords & Tabs

Weezer Chords & Tabs

Version: 1 Type: Tab 0 ratings
1 star 2 stars 3 stars 4 stars 5 stars
comments

Haunt You Every Day Tab

Whats up, only tabbed the intro and solo's so far, durring the verse he just improvises
behind the rhythm, but I am working on tabbing it.  If this is not 100% correct, it's
damn close.  Enjoy.


Intro

e)---4-------6---------------------------------------------------|
B)-------4-------4---2---4/5-------------------------------------|
G)-----------------------------3---4--3--4/6--1--1--0--1/3--0----|
D)---------------------------------------------------------------|
A)---------------------------------------------------------------|
E)---------------------------------------------------------------|


The interlude at 1:09 is the same tab as the intro.


solo (2:18)

e)---------9--11--h12--9---h11---------------9--11--12--9---11-----|
B)--9--12----------------------12----9--12----------------------12-|
G)-----------------------------------------------------------------|
D)-----------------------------------------------------------------|
A)-----------------------------------------------------------------|
E)-----------------------------------------------------------------|

e)------------------9----------9------------------------------------|
B)--12--11--12--11-----12--11-----12--11--12--11--12--11--12--11--9-|
G)------------------------------------------------------------------|
D)------------------------------------------------------------------|
A)------------------------------------------------------------------|
E)------------------------------------------------------------------|
[ Tab from: http://www.guitartabs.cc/tabs/w/weezer/haunt_you_every_day_tab.html ]
e)---------------14~----14~------14~-------------------------------|
B)--16--14----16~----16~-----16~-------b16~------12----------------|
G)-----------------------------------------------------------------|
D)-----------------------------------------------------------------|
A)-----------------------------------------------------------------|
E)-----------------------------------------------------------------|


ending solo outro (3:37)

e)-----------------------------------------------------------------|
B)-----------------------------------------------11--12--12--11----|
G)--444444--4--4--3---/8--8----8h9--6--4--8------------------------|
D)-----------------------------------------------------------------|
A)-----------------------------------------------------------------|
E)-----------------------------------------------------------------|


e)----------------------------------16-14----------16-14-----------|
B)--14--12--16--14----17-16--17-16---------17-16------------17-16--|
G)-----------------------------------------------------------------|
D)-----------------------------------------------------------------|
A)-----------------------------------------------------------------|
E)-----------------------------------------------------------------|

e)--19-18--19-18--19-18---16~--19--21-18--16-19-----16-14----------|
B)----------------------------------------------16--------16-14-12-|
G)-----------------------------------------------------------------|
D)-----------------------------------------------------------------|
A)-----------------------------------------------------------------|
E)-----------------------------------------------------------------|

Hope you like it. WEEZER F-ING RULES.
Peace,
Tyler Long
Comments