Weezer - Hash Pipe Chords & Tabs

 

Hash Pipe Chords & Tabs

Weezer Chords & Tabs

Version: 9 Type: Tab 0 ratings
1 star 2 stars 3 stars 4 stars 5 stars
comments

Hash Pipe Tab

   
Here is the 100% correct version of hash pipe: 

intro: E(6th string)-0-0-2-3-0-0-2-3-0-0-2-3-0-0-2-3(repeat)

then(chorus): 
[ Tab from: http://www.guitartabs.cc/tabs/w/weezer/hash_pipe_tab_ver_9.html ]
(do you have problrms?...)
e---------------------------- 
b----------------------------
g----------------------------
d--7-7--7-7--7---------------
a--7-7--7-7--7---------------
e--5-5--5-5--5---------------
 
You got a hash pipe...
 E(6th string)-0-0-2-3-0-0-2-3-0-0-2-3-0-0-2-3(repeat) 

Come on and kick me... 
e--------------------------------------
b--------------------------------------
g--------------------------------------
d--2-2--4-5--2-2--4-5--2-2--4-5--2-2---
a--2-2--4-5--2-2--4-5--2-2--4-5--2-2---
e--0-0--2-3--0-0--2-3--0-0--2-3--0-0--- 

I am checking how can it be the solo , later I transcribe it


Transcribed by pablo ihnen
Dudes? mail me to: fendercastaway@hotmail.com
Comments