Weezer - Hash Pipe Chords & Tabs

 

Hash Pipe Chords & Tabs

Weezer Chords & Tabs

Version: 4 Type: Tab 0 ratings
1 star 2 stars 3 stars 4 stars 5 stars
comments

Hash Pipe Tab

#----------------------------------PLEASE NOTE--------------------------------#
#This file is the author's own work and represents their interpretation of the#
#song. You may only use this file for private study, scholarship, or research.#
#-----------------------------------------------------------------------------#
#-- File created with Instab - http://www.pconline.com/~smcarey/instab.html --#
#-----------------------------------------------------------------------------#

Author/Artist: Weezer
Title: Hashpipe
Album: Weezer a.k.a. The Green Album
Transcribed by: David Ricketts, The Almighty Gutzappa
Email: almighty_gutzappa@hotmail.com

Another one of the many Hashpipe variations.

------------------------------------------------------------------------------
------------------------------------------------------------------------------
------------------------------------------------------------------------------
------------------------------------------------------------------------------
-2-2-4/5----------------------------------------------------------------------
-0-0-2/3----------------------------------------------------------------------
 Verse                                                                        
[ Tab from: http://www.guitartabs.cc/tabs/w/weezer/hash_pipe_tab_ver_4.html ]
--------------------|------------|--------------------------------------------
--------------------|------------|--------------------------------------------
--------------------|------------|--------------------------------------------
-7-7--7-7--7--7-7-7-|-2-2-4/5----|-10-9-7-5-4---------------------------------
-7-7--7-7--7--7-7-7-|-2-2-4/5----|-10-9-7-5-4---------------------------------
-5-5--5-5--5--5-5-5-|-0-0-2/3----|-8--7-5-3-2---------------------------------
 PreChoA             PreCho B      Chorus >-- CHO goes A,B,A Chorus           

-9999-7777-5555-3333----------------------------------------------------------
---------------------7777-5555-3333-1111--------------------------------------
-----------------------------------------6666-4444-2222-0000-9999-12121212----
------------------------------------------------------------------------------
------------------------------------------------------------------------------
------------------------------------------------------------------------------
 Solo                                                                         

------------------------------------------------------------------------------
------------------------------------------------------------------------------
-14141414-15151515------------------------------------------------------------
------------------------------------------------------------------------------
------------------------------------------------------------------------------
------------------------------------------------------------------------------
 Breakdown: Verse CHO Verse CHO Verse Solo CHO Verse                          

Comments