Weezer - Hash Pipe Chords & Tabs

 

Hash Pipe Chords & Tabs

Weezer Chords & Tabs

Version: 15 Type: Tab 0 ratings
1 star 2 stars 3 stars 4 stars 5 stars
comments

Hash Pipe Tab

Weezer
Hashpipe (Solo)
Green Album
Transcribed:  ghostcar22@hotmail.com



-8-8-8-8--7-7-7-7--5-5-5-5--3-3-3-3|
-8-8-8-8--7-7-7-7--5-5-5-5--3-3-3-3|
-----------------------------------|
-----------------------------------|
-----------------------------------|
-----------------------------------|
                                                                              
[ Tab from: http://www.guitartabs.cc/tabs/w/weezer/hash_pipe_tab_ver_15.html ]
-12-12-12-12--10-10-10-10--8-8-8-8-7-7-7-7|
-12-12-12-12--10-10-10-10--8-8-8-8-7-7-7-7|
------------------------------------------|
------------------------------------------|
------------------------------------------|
------------------------------------------|
                                                                              

-15-15-15-15--14-14-14-14--12-12-12-12--10-10-10-10|
-15-15-15-15--14-14-14-14--12-12-12-12--10-10-10-10|
---------------------------------------------------|
---------------------------------------------------|
---------------------------------------------------|
---------------------------------------------------|
                                                                              

-19-19-19-19--17-17-17-17--19-19-19-19--17-17-17-17|
-19-19-19-19--17-17-17-17--19-19-19-19--17-17-17-17|
---------------------------------------------------|
---------------------------------------------------|
---------------------------------------------------|
---------------------------------------------------|
Comments