Weezer - Hash Pipe Chords & Tabs

 

Hash Pipe Chords & Tabs

Weezer Chords & Tabs

Version: 14 Type: Tab 0 ratings
1 star 2 stars 3 stars 4 stars 5 stars
comments

Hash Pipe Tab

   
'HASHPIPE' by Weezer
from the "Green Album" (2001)
transcribed by Dan Cross(guitar.guide@about.com)
http://guitar.about.com 
 
  A5 riff (palm-muted)            (6x) 
|----------------------------------|
|----------------------------------| 
|-------------------------------0--| 
|-2-2-----2-2-----2-2-----2-2---0--| 
|-0-0-2-3-0-0-2-3-0-0-2-3-0-0-2-0--| 
|----------------------------------| 

  D5           A5 riff
|----------------------------------------------|
|-3--3-3-3-3-----------------------------------|
|-2--2-2-2-2-----------------------------------|
|-0--0-0-0-0---2-2-4-5-2-2-4-5-2-2-4-5-2-2-4-5-|
|--------------0-0-2-3-0-0-2-3-0-0-2-3-0-0-2-3-|
|----------------------------------------------|

  D5          F5          E5
|--------------------------------------|
|-3--3-3-3-3---------------------------|
|-2--2-2-2-2---------------------------|
|-0--0-0-0-0---------------------------|
|-------------3--3-3-3-3--2--2-2-2-2---|
|-------------1--1-1-1-1--0--0-0-0-0---|

  D5          C5          B5
|----------------------------------------------|
|----------------------------------------------|
|----------------------------------------------|
|-7--7-7-7-7--5--5-5-5-5--4--4-4-4-4--4--4--4--|
|-5--5-5-5-5--3--3-3-3-3--2--2-2-2-2--2--2--2--|
|----------------------------------------------|
                                   I got my hashpipe...

1st time: back to opening riff
[ Tab from: http://www.guitartabs.cc/tabs/w/weezer/hash_pipe_tab_ver_14.html ]
2nd & 3rd time:
    G5
|-------------------------------------|
|-------------------------------------|
|-------------------------------------|
|---5-5-5-5-5-5-5-5-5-5-5-5-5-5-5-5---|
|---5-5-5-5-5-5-5-5-5-5-5-5-5-5-5-5---|
|---3-3-3-3-3-3-3-3-3-3-3-3-3-3-3-3---|
                      I got my hashpipe...  (back to riff)


guitar solo (approximated without effects)
|----------------------------------------------|
|-13-13-13-13-12-12-12-12-10-10-10-10-8-8-8-8--|
|-12-12-12-12-11-11-11-11--9--9--9--9-7-7-7-7--|
|----------------------------------------------|
|----------------------------------------------|
|----------------------------------------------|


|-12-12-12-12-10-10-10-10--8-8-8-8-7-7-7-7-----|
|-12-12-12-12-10-10-10-10--8-8-8-8-7-7-7-7-----|
|--9--9--9--9--7--7--7--7--5-5-5-5-4-4-4-4-----|
|----------------------------------------------|
|----------------------------------------------|
|----------------------------------------------|


|----------------------------------------------|
|----------------------------------------------|
|-12-12-12-12-11-11-11-11-9-9-9-9-7-7-7-7------|
|----------------------------------------------|
|-10-10-10-10--9--9--9--9-7-7-7-7-5-5-5-5------|
|----------------------------------------------|


|-------------------------------------------------|
|-------------------------------------------------|
|-16-16-16-16-14-14-14-14-16-16-16-16-14-14-14-14-|
|-------------------------------------------------|
|-14-14-14-14-12-12-12-12-14-14-14-14-12-12-12-12-|
|-------------------------------------------------|

back to D5 part...
Comments