Weezer - Hash Pipe Chords & Tabs

 

Hash Pipe Chords & Tabs

Weezer Chords & Tabs

Version: 13 Type: Tab 0 ratings
1 star 2 stars 3 stars 4 stars 5 stars
comments

Hash Pipe Tab

               *Hash Pipe*
               Green Album
              Geffin Records
                 *2001*


P.M.--------------------------------------------|
|-------------------------|--------------------------|
|-------------------------|--------------------------|
|-------------------------|--------------------------|
|-2--0--4--5--2--0--4--5--|--2--0--4--5--2--0--4--5--|
|-0--0--2--3--0--0--2--3--|--0--0--2--3--0--0--2--3--|
|-------------------------|-----------------------3--|
*repeat*

Pre-Chorus:
|-----------------------|---------------|
|-----------------------|---------------|
|-7----7----7--7--7--7--|-7--7--7--7--7-|
|-7----7----7--7--7--7--|-7--7--7--7--7-|
|-5----5----5--5--0--5--|-5--5--5--5--5-|
|-5----5----5--5--0--5--|-5--5--5--5--5-|

|--------------------------||
|--------------------------||
|--------------------------||
|-7--7--9--10--7--7--9-----||
|-7--7--9--10--7--7--9--10-||
|-5--5--7---8--5--5--7---8-||

Chorus:
let ring throughout
|----------------------------------------------------------|
|----------------------------------------------------------|
|-10--------------9---------------7---------------5--------|
|-10--------------9---------------7---------------5--------|
|--8--------------7---------------5---------------3--------|
|--8--------------7---------------5---------------3--------|
[ Tab from: http://www.guitartabs.cc/tabs/w/weezer/hash_pipe_tab_ver_13.html ]
|---------------------------------------------------|
|---------------------------------------------------|
|-4-----4-----4--4--4--4-----4--4--4--4--4--4--4--4-|
|-4-----4-----4--4--4--4-----4--4--4--4--4--4--4--4-|
|-2-----2-----2--2--0--2-----2--2--2--2--2--2--2--2-|
|-2-----2-----2--2--0--2-----2--2--2--2--2--2--2--2-|

Guitar Solo:
(w/wah-wah)
|-8--8--8--8--7--7--7--7--5--5--5--5--3--3--3--3--|
|-8--8--8--8--7--7--7--7--5--5--5--5--3--3--3--3--|
|-------------------------------------------------|
|-------------------------------------------------|
|-------------------------------------------------|
|-------------------------------------------------|

|-/-12--12--12--12--10--10--10--10--8--8--8--8--7--7--7--7-|
|-/-12--12--12--12--10--10--10--10--8--8--8--8--7--7--7--7-|
|----------------------------------------------------------|
|----------------------------------------------------------|
|----------------------------------------------------------|
|----------------------------------------------------------|

|-/-15-15-15-15-14-14-14-14-12-12-12-12-10-10-10-10-|
|-/-15-15-15-15-14-14-14-14-12-12-12-12-10-10-10-10-|
|---------------------------------------------------|
|---------------------------------------------------|
|---------------------------------------------------|
|---------------------------------------------------|

|-/-19-19-19-19-17-17-17-17-19-19-19-19-17-17-17-17-|
|-/-19-19-19-19-17-17-17-17-19-19-19-19-17-17-17-17-|
|---------------------------------------------------|
|---------------------------------------------------|
|---------------------------------------------------|
|---------------------------------------------------|

This is a very simple song. If you've got questions, comments, corrections, or requests, 
email me at: weezerville@hotmail.com
Comments