Weezer - Hash Pipe Chords & Tabs

 

Hash Pipe Chords & Tabs

Weezer Chords & Tabs

Version: 1 Type: Tab 0 ratings
1 star 2 stars 3 stars 4 stars 5 stars
comments

Hash Pipe Tab

   
"Hash Pipe" by =weezer=
words and music by Rivers Cuomo
transcribed by kenneth peng

totally kick ass song, everyone should get their new album.

tuning: E standard

bass slide
e/-5/8~~~

verse riff (palm muted)
e/--------------------------------
b/-( 1x ) ( 2x )-( 3x )-( 4x )--(on the last ..8 &.. strum C with the vocal gruff)
g/-2-2-4-5-2-2-4-5-2-2-4-5-2-2-4-5-2-2-4-5-2-2-4-5-2-2-4-5-2-2-4-5
d/-2-2-4-5-2-2-4-5-2-2-4-5-2-2-4-5-2-2-4-5-2-2-4-5-2-2-4-5-2-2-4-5
a/-0-0-2-3-0-0-2-3-0-0-2-3-0-0-2-3-0-0-2-3-0-0-2-3-0-0-2-3-0-0-2-3
e/----------------------------------------------------------------
1 & 2 & 3 & 4 & 5 & 6 & 7 & 8 & 1 & 2 & 3 & 4 & 5 & 6 & 7 & 8 &


bridge: "oh, c'mon and kick me"
g/-2-2-4-5-7--- 7
d/-2-2-4-5-7 for count of ..8 &... then verse riff 4x then play 7 for another 8 &
a/-0-0-2-3-5--- 5
e/---------------------------------
(sorry if it's a little confusing, i'm sure if you play along you'll figure it out)

chorus:"...me c'mon and kick me you've got your problems
g/-18-10-10-10-10-10-10-10-10-10-10-10-10-10-10-10--9-9-9-9-9-9-9-9-9-9-9-9-9-9-9-9-
d/-10-10-10-10-10-10-10-10-10-10-10-10-10-10-10-10--9-9-9-9-9-9-9-9-9-9-9-9-9-9-9-9-
a/-8--8--8--8--8--8--8--8---8--8--8--8--8--8--8--8--7-7-7-7-7-7-7-7-7-7-7-7-7-7-7-7-
e/-8--8--8--8--8--8--8--8---8--8--8--8--8--8--8--8--7-7-7-7-7-7-7-7-7-7-7-7-7-7-7-7-
[ Tab from: http://www.guitartabs.cc/tabs/w/weezer/hash_pipe_tab.html ]
i've got my eyes wide? you've got your big g's i've got my hash pipe
g/-7-7-7-7-7-7-7-7-7-7-7-7-7-7-7-7-5-5-5-5-5-5-5-5-5-5-5-5-5-5-5-5-4-4-4-4-4-4-x-4-4-4-x-4-x-4
d/-7-7-7-7-7-7-7-7-7-7-7-7-7-7-7-7-5-5-5-5-5-5-5-5-5-5-5-5-5-5-5-5-4-4-4-4-4-4-x-4-4-4-x-4-x-4
a/-5-5-5-5-5-5-5-5-5-5-5-5-5-5-5-5-3-3-3-3-3-3-3-3-3-3-3-3-3-3-3-3-2-2-2-2-2-2-x-2-2-2-x-2-x-2
e/-5-5-5-5-5-5-5-5-5-5-5-5-5-5-5-5-3-3-3-3-3-3-3-3-3-3-3-3-3-3-3-3-2-2-2-2-2-2-x-2-2-2-x-2-x-2
(the x in this case implies a break and not a muted strum)


that crazy fill: for 8 &
g/-7
d/-7
a/-5
e/--

lead during crazy fill
e/---------------------------------
b/-4-5-4-5-4-5-4-5-4-5-4-5-4-5-4-5-
g/---------------------------------
d/---------------------------------

solo (w/ slight wah effect)
e/---------------------------------------------------------------------------------------------
b/-13-13-13-13-12-12-12-12-10-10-10-10-8-8-8-8-17-17-17-17-15-15-15-15-13-13-13-13-12-12-12-12-
g/---------------------------------------------------------------------------------------------
d/-10-10-10-10--9--9--9--9--7--7--7--7-5-5-5-5-14-14-14-14-12-12-12-12-10-10-10-10--9--9--9--9-
a/---------------------------------------------------------------------------------------------
e/

e/-------------------------------------------------19-19-19-19-17-17-17-17-19-19-19-19-17-17-17-17
b/-20-20-20-20-19-19-19-19-17-17-17-17-15-15-15-15------------------------------------------------
g/-------------------------------------------------16-16-16-16-14-14-14-14-16-16-16-16-14-14-14-14
d/-17-17-17-17-16-16-16-16-14-14-14-14-12-12-12-12-
a/-
e/-
Comments