Weezer - Hash Pipe Chords & Tabs

 

Hash Pipe Chords & Tabs

Weezer Chords & Tabs

Version: 2 Type: Bass Tab 1 rating
1 star 2 stars 3 stars 4 stars 5 stars
comments

Hash Pipe Bass Tab

Band: Weezer
Song: Hash Pipe
Tabber: Ken La Rock (Whitepny33@aol.com)
Tuning: Standard

Personally i dont like Weezer alot but this song is really easy and 
my tab is better than what i have seen. For the chorus listen to the 
song and you will understand where the words are.

Intro
|-------------------------------------------------------|
|---------------------------------------------------5---|
|---0--0--2--3---0--0--2--3---0--0--2--3---0--0--7------|
|-------------------------------------------------------|

Main Riff
|---------------------|   |----------------------|
|---------------------|   |-----------------5----|  do this 
|--0-0-2-3--0-0-2-3---|   |--0-0-2-3--0-0/7------| main riff 
|---------------------|x3 |----------------------|   twice
[ Tab from: http://www.guitartabs.cc/tabs/w/weezer/hash_pipe_btab_ver_2.html ]
Chorus
                 come on and kick me                    (oh)
|---------------------------|---------|----------|  |----------|
|---------------------------|---------|----------|  |----------|
|--5--5--5-5-0-5--5-5-5-5-5-|---------|--0-0-2-3-|  |-0-0-2-0--|
|---------------------------|---/10\--|----------|x3|----------|

                 come on and kick me     (whoa)
|-------------------------------------|----------|  |---------|
|-------------------------5-----------|----------|  |---------|
|--5--5--5-5-0-5--5-5-5/7----7--5\----|----------|  |-----5-7-|
|-------------------------------------|--1-1-1-1-|x3|-1/7-----|

|--------------------|   |--------------------|  
|--------------------|   |--------------------|  
|--7-7-7-7--7-7-7-7--|   |--5-5-5-5--5-5-5-5--| 
|--------------------|x2 |--------------------|x2

|--------------------|  |-----------|  |-------|
|--------------------|  |-----------|  |-------|
|--3-3-3-3--3-3-3-3--|  |--2-2-2-2--|  |-2-2-2-|
|--------------------|x2|-----------|x3|-------|

Before solo
|----------|  |---------|
|----------|  |---------|
|----------|  |---------|
|--3-3-3-3-|x3|-3-3-/7\-|

Buring solo play the main riff
Comments