Weezer - Hash Pipe Chords & Tabs

 

Hash Pipe Chords & Tabs

Weezer Chords & Tabs

Version: 1 Type: Bass Tab 0 ratings
1 star 2 stars 3 stars 4 stars 5 stars
comments

Hash Pipe Bass Tab

   
Tabbed by: JR Slater (sfsj2000@hotmail.com)

 Intro     Verse 
G---------|---------------------------------| 
D---------|---------------------------------| 
A-(slide)-|-0-0-2-3-0-0-2-3-0-0-2-3-0-0-2-3-| 
E---------|---------------------------------| 

Play Verse 6 times 

 Chorus 
G-----------------------------------------------------------------| 
D-----------------------------------------------------------------| 
A-5-5-5-5-5-5-5-5-5-5-5-5-5-5-5-5-0-0-2-3-0-0-2-3-0-0-2-3-0-0-2-3-| 
E-----------------------------------------------------------------| 

G-----------------------------------------------------------------| 
D-----------------------------------------------------------------| 
A-5-5-5-5-5-5-5-5-5-5-5-5-5-5-5-5-3-3-3-3-3-3-3-3-3-3-3-3-3-3-3-3-| 
E-----------------------------------------------------------------| 
[ Tab from: http://www.guitartabs.cc/tabs/w/weezer/hash_pipe_btab.html ]
G-----------------------------------------------------------------| 
D-----------------------------------------------------------------| 
A-2-2-2-2-2-2-2-2-2-2-2-2-2-2-2-2-5-5-5-5-5-5-5-5-5-5-5-5-5-5-5-5-| 
E-----------------------------------------------------------------| 

G-----------------------------------------------------------------| 
D-----------------------------------------------------------------| 
A-3-3-3-3-3-3-3-3-3-3-3-3-3-3-3-3-2-2-2-2-2-2-2-2-2-2-2-2-2-2-2-2-| 
E-----------------------------------------------------------------| 

 Play verse 6 times 

 Chorus 

 End of chorus/Pre-Verse 
G---------------------------------| 
D---------------------------------| 
A---------------------------------| 
E-3-3-3-3-3-3-3-3-3-3-3-3-3-3-3-3-| 

 Play the little fill bit once 

 Play verse 6 times 

 Chorus 

 Play verse 4 times 

 End on an A 
Comments