Weezer - Getchoo Chords & Tabs

 

Getchoo Chords & Tabs

Weezer Chords & Tabs

Version: 2 Type: Tab

Getchoo Tab

Tabbed by: Edgar

Email: A3oooBenjamin@yahoo.com

Intro:
e|--------------------------------------------------------------------------------|
B|--------------------------------------------------------------------------------|
G|--------------------------------------------------------------------------------|
D|--7--7--7-7-7-7-7-7--2--2--2-2-2-2-2-2--7--7--7-7-7-7-7-7--2--2--2-2-2-2-2-2----|
A|--7--7--7-7-7-7-7-7--2--2--2-2-2-2-2-2--7--7--7-7-7-7-7-7--2--2--2-2-2-2-2-2----|
E|--5--5--5-5-5-5-5-5--0--0--0-0-0-0-0-0--5--5--5-5-5-5-5-5--0--0--0-0-0-0-0-0----|

Verse:
e|--------------------------------------------------------------------------------|
B|--------------------------------------------------------------------------------|
G|--------------------------------------------------------------------------------|
D|--7--7--7-7-7-7-7-7--2--2--2-2-2-2-2-2--7--7--7-7-7-7-7-7--2--2--2-2-2-2-2-2----|
A|--7--7--7-7-7-7-7-7--2--2--2-2-2-2-2-2--7--7--7-7-7-7-7-7--2--2--2-2-2-2-2-2----|
E|--5--5--5-5-5-5-5-5--0--0--0-0-0-0-0-0--5--5--5-5-5-5-5-5--0--0--0-0-0-0-0-0----|
[ Tab from: http://www.guitartabs.cc/tabs/w/weezer/getchoo_tab_ver_2.html ]
e|--------------------------------------------------------------------------------|
B|--------------------------------------------------------------------------------|
G|---------------------7--7--7-7-7-7-7-7------------------------------------------|
D|--7--7--7-7-7-7-7-7--7--7--7-7-7-7-7-7--2--2--2-2-2-2-2-2--7--7--7-7-7-7-7-7----|
A|--7--7--7-7-7-7-7-7--5--5--5-5-5-5-5-5--2--2--2-2-2-2-2-2--7--7--7-7-7-7-7-7----|
E|--5--5--5-5-5-5-5-5---------------------0--0--0-0-0-0-0-0--5--5--5-5-5-5-5-5----|


Chorus:
e|---------------------------------------------------------------------------|
B|---------------------------------------------------------------------------|
G|--------4--5-5-5----------4--5-5-5----------4--5-5-5-----------------------|
D|--2--2--4--5-5-5----2--2--4--5-5-5----2--2--4--5-5-5----2--2--2--2--2--2---|
A|--2--2--2--3-3-3----2--2--2--3-3-3----2--2--2--3-3-3----2--2--2--2--2--2---|
E|--0--0--------------0--0--------------0--0--------------0--0--0--0--0--0---|

Bridge:
e|----------------------------------------------------------|
B|----------------------------------------------------------|
G|--7-7-7--7-7-7--7-7-7--7-7-7------------------------------|
D|--7-7-7--7-7-7--7-7-7--7-7-7--7-7-7--7-7-7--7-7-7--7-7-7--|
A|--5-5-5--5-5-5--5-5-5--5-5-5--7-7-7--7-7-7--7-7-7--7-7-7--|
E|------------------------------5-5-5--5-5-5--5-5-5--5-5-5--|

e|----------------------------------------------------------|
B|----------------------------------------------------------|
G|--7-7-7--7-7-7--7-7-7--7-7-7------------------------------|
D|--7-7-7--7-7-7--7-7-7--7-7-7--2-2-2--2-2-2--2--2--2--2--2-|
A|--5-5-5--5-5-5--5-5-5--5-5-5--2-2-2--2-2-2--2--2--2--2--2-|
E|------------------------------0-0-0--0-0-0--0--0--0--0--0-|


Song Order:
Intro
Verse
Intro
Verse
Chorus
Intro
Verse
Chorus
Bridge
Verse/Solo (Note)
Chorus
Intro


No solo yet...I haven't gotten it yet...or maybe I'm lazy...either way,
the fact is that I don't have the solo yet...