Weezer - Getchoo Chords & Tabs

 

Getchoo Chords & Tabs

Weezer Chords & Tabs

Version: 1 Type: Tab 0 ratings
1 star 2 stars 3 stars 4 stars 5 stars
comments

Getchoo Tab

   
Getchoo
as performed by Weezer
Words and Music by Rivers Cuomo

4/4 Time
All strings tuned down one half step
(All chords relative to standard tuning)


Intro

             A5                        E5
eb||-------|-------------------------|-------------------------|
Bb||-0///////10~~~~~~~~~~~~~~~~10//////17~~~~~~~~~~~~~~//13\\\\|
F#||-------|-------------------------|-------------------------|
C#||-------|-------------------------|-------------------------|
Ab||-------|-------------------------|-------------------------|
Eb||-------|-------------------------|-------------------------|
///////////////////////////////////////////////////////////////\
eb||-------|-------------------------|-------------------------|
Bb||-------|-------------------------|-------------------------|
F#||-------|-------------------------|-------------------------|
C#||-------|-------------------7///////14~~~~~~~~~~~~~~~~14\\\\|
Ab||-0//////12~~~~~~~~~~~~~~~~~------|-------------------------|
Eb||-------|-------------------------|-------------------------|
///////////////////////////////////////////////////////////////\
eb||-------|-0--0--0--0--0--0--0--0--|-0--0--0--0--0--0--0--0--|
Bb||-------|-x--x--x--x--x--x--x--x--|-0--0--0--0--0--0--0--0--|
F#||-------|-2--2--2--2--2--2--2--2--|-x--x--x--x--x--x--x--x--|
C#||-------|-2--2--2--2--2--2--2--2--|-2--2--2--2--2--2--2--2--|
Ab||-------|-0--0--0--0--0--0--0--0--|-2--2--2--2--2--2--2--2--|
Eb||-------|-------------------------|-0--0--0--0--0--0--0--0--|
	    (Play directly above pattern every intro)^^


    A5                        E5
eb|-------------------------|-------------------------|
Bb|\10----------------10//////17~~~~~~~~~~~~~~~~17\\\\|
F#|-------------------------|-------------------------|
C#|-------------------------|-------------------------|
Ab|-------------------------|-------------------------|
Eb|-------------------------|-------------------------|
//////////////////////////////////////////////////////\
eb|-------------------------|-------------------------|
Bb|-------------------------|-------------------------|
F#|-------------------------|-------------------------|
C#|\7-----------------7///////14~~~~~~~~~~~~~~~~14\\\\|
Ab|-------------------------|-------------------------|
Eb|-------------------------|-------------------------|

 
Verse

    A5                        E5
eb|-------------------------|-------------------------|
Bb|\10----------------------|-------------------------|
F#|-------------------------|-------------------------|
C#|-------------------------|-------------------------|
Ab|-------------------------|-------------------------|
Eb|-------------------------|-------------------------|
//////////////////////////////////////////////////////\
eb|-------------------------|-------------------------|
Bb|-------------------------|-------------------------|
F#|-------------------------|-------------------------|
C#|\7-----------------------|-------------------------|
Ab|-------------------------|-------------------------|
Eb|-------------------------|-------------------------|
//////////////////////////////////////////////////////\
eb|-5--5--5--5--5--5--5--5--|-0--0--0--0--0--0--0--0--|
Bb|-5--5--5--5--5--5--5--5--|-0--0--0--0--0--0--0--0--|
F#|-2--2--2--2--2--2--2--2--|-x--x--x--x--x--x--x--x--|
C#|-2--2--2--2--2--2--2--2--|-2--2--2--2--2--2--2--2--|
Ab|-0--0--0--0--0--0--0--0--|-2--2--2--2--2--2--2--2--|<<--
Eb|-------------------------|-0--0--0--0--0--0--0--0--|(Play this pattern through verses)
    This is beginning to hurt,

A5
this is beginning to be serious.

    A5                        Dm
eb|-5--5--5--5--5--5--5--5--|-5--5--5--5--5--5--5--5--|
Bb|-5--5--5--5--5--5--5--5--|-6--6--6--6--6--6--6--6--|
F#|-2--2--2--2--2--2--2--2--|-7--7--7--7--7--7--7--7--|
C#|-2--2--2--2--2--2--2--2--|-7--7--7--7--7--7--7--7--|
Ab|-0--0--0--0--0--0--0--0--|-5--5--5--5--5--5--5--5--|
Eb|-------------------------|-------------------------|
    It used to be a game,  now it's a cryin' shame 'cuz

E5
you don't wanna play around no more.

    A5
eb|-------------------------|
Bb|-------------------5/////|
F#|-------------------------|
C#|-------------------------|
Ab|-------------------------|
Eb|-------------------------|
////////////////////////////\
eb|-------------------------|
Bb|-------------------------|
F#|-------------------------|
C#|-------------------2/////|
Ab|-------------------------|
Eb|-------------------------|


Repeat Intro

    A5                        E5
eb|-------------------------|-------------------------|
Bb|/10~~~~~~~~~~~~~~~-10//////17~~~~~~~~~~~~~~-/13\\\\|
F#|-------------------------|-------------------------|
C#|-------------------------|-------------------------|
Ab|-------------------------|-------------------------|
Eb|-------------------------|-------------------------|
//////////////////////////////////////////////////////\
eb|-------------------------|-------------------------|
Bb|-------------------------|-------------------------|
F#|-------------------7///////14~~~~~~~~~~~~~~~-14\\\\|
C#|/12~~~~~~~~~~~~~~~---------------------------------|
Ab|-------------------------|-------------------------|
Eb|-------------------------|-------------------------|

    A5                        E5
eb|-------------------------|-------------------------|
Bb|\10----------------10//////17~~~~~~~~~~~~~~--17\\\\|
F#|-------------------------|-------------------------|
C#|-------------------------|-------------------------|
Ab|-------------------------|-------------------------|
Eb|-------------------------|-------------------------|
//////////////////////////////////////////////////////\
eb|-------------------------|-------------------------|
Bb|-------------------------|-------------------------|
F#|\7-----------------7///////14~~~~~~~~~~~~~~~-14\\\\|
C#|-------------------------|-------------------------|
Ab|-------------------------|-------------------------|
Eb|-------------------------|-------------------------|


Verse

    A5                        E5
eb|-------------------------|-------------------------|
Bb|\10----------------------|-------------------------|
F#|-------------------------|-------------------------|
C#|-------------------------|-------------------------|
Ab|-------------------------|-------------------------|
Eb|-------------------------|-------------------------|
//////////////////////////////////////////////////////\
eb|-------------------------|-------------------------|
Bb|-------------------------|-------------------------|
F#|-------------------------|-------------------------|
C#|\7-----------------------|-------------------------|
Ab|-------------------------|-------------------------|
Eb|-------------------------|-------------------------|
    Sometimes I push too hard,

A5                              E5
sometimes you fall and skin you knee.
A5                  Dm
I never meant to do all that I've dont to you.
E5                                 
Please, baby, say it's not too late.


eb|-5--5--5--5--5-----------|
Bb|-5--5--5--5--5-----------|
F#|-2--2--2--2--2-----------|
C#|-2--2--2--2--2-----------|
Ab|-0--0--0--0--0-----------|
Eb|----------------x//ps\\x-|


Chorus

    E5     B5   C5
eb|-0--0--------------------|
Bb|-0--0--------------------|
F#|-x--x---4----5-----5-----|
C#|-2--2---4----5-----5-----|
Ab|-2--2---2----3-----3-----|
Eb|-0--0--------------------|
   Getchoo, uh huh.

E5       B5 C5
Getchoo, uh huh.
E5       B5 C5
Getchoo, uh huh.

    E5                          N.C.
eb|-0--0-----0--0-----0--0--| |-------------------|
Bb|-0--0-----0--0-----0--0--|3|-------------------|
F#|-x--x-----x--x-----x--x--|-|-------------------|
C#|-2--2-----2--2-----2--2--|4|-------------------|
Ab|-2--2-----2--2-----2--2--| |-------------------|
Eb|-0--0-----0--0-----0--0--| |-------------------|
    Getchoo, getchoo, getchoo,                 uh huh.


Repeat Intro

      A5                        E5
eb| |-------------------------|-------------------------|
Bb|4|/10~~~~~~~~~~~~~~~-10//////17~~~~~~~~~~~~~~-/13\\\\|
F#|-|-------------------------|-------------------------|
C#|4|-------------------------|-------------------------|
Ab| |-------------------------|-------------------------|
Eb| |-------------------------|-------------------------|
//////////////////////////////////////////////////////\
eb| |-------------------------|-------------------------|
Bb|4|-------------------------|-------------------------|
F#|-|-------------------7///////14~~~~~~~~~~~~~~~-14\\\\|
C#|4|/12~~~~~~~~~~~~~~~---------------------------------|
Ab| |-------------------------|-------------------------|
Eb| |-------------------------|-------------------------|
[ Tab from: http://www.guitartabs.cc/tabs/w/weezer/getchoo_tab.html ]
    A5                        E5
eb|-------------------------|-------------------------|
Bb|\10----------------10//////17~~~~~~~~~~~~~~--17\\\\|
F#|-------------------------|-------------------------|
C#|-------------------------|-------------------------|
Ab|-------------------------|-------------------------|
Eb|-------------------------|-------------------------|
//////////////////////////////////////////////////////\
eb|-------------------------|-------------------------|
Bb|-------------------------|-------------------------|
F#|\7-----------------7///////14~~~~~~~~~~~~~~~-14\\\\|
C#|-------------------------|-------------------------|
Ab|-------------------------|-------------------------|
Eb|-------------------------|-------------------------|


Verse

    A5                        E5
eb|-------------------------|-------------------------|
Bb|\10----------------------|-------------------------|
F#|-------------------------|-------------------------|
C#|-------------------------|-------------------------|
Ab|-------------------------|-------------------------|
Eb|-------------------------|-------------------------|
//////////////////////////////////////////////////////\
eb|-------------------------|-------------------------|
Bb|-------------------------|-------------------------|
F#|-------------------------|-------------------------|
C#|\7-----------------------|-------------------------|
Ab|-------------------------|-------------------------|
Eb|-------------------------|-------------------------|
    You know this is breaking me up.

A5                              E5
You think that I'm some kind of freak, uh huh.
A5                         Dm
But if you come back to me then you will surely see
E5                          A5
that I'm just foolin' around.


Chorus

E5       B5 C5
Getchoo, uh huh.
E5       B5 C5
Getchoo, uh huh.
E5       B5 C5
Getchoo, uh huh.
E5
Getchoo, getchoo, getchoo.


Bridge

    Dm
eb|-5--5--5-----5--5--5-----|-5--5--5-----5--5--5-----|
Bb|-6--6--6-----6--6--6-----|-6--6--6-----6--6--6-----|
F#|-7--7--7-----7--7--7-----|-7--7--7-----7--7--7-----|
C#|-7--7--7-----7--7--7-----|-7--7--7-----7--7--7-----|
Ab|-5--5--5-----5--5--5-----|-5--5--5-----5--5--5-----|
Eb|-------------------------|-------------------------|
          I     can't    be - lieve (I    can't    be -

    A5
eb|-5--5--5-----5--5--5-----|-5--5--5-----5--5--5-----|
Bb|-5--5--5-----5--5--5-----|-5--5--5-----5--5--5-----|
F#|-2--2--2-----2--2--2-----|-2--2--2-----2--2--2-----|
C#|-2--2--2-----2--2--2-----|-2--2--2-----2--2--2-----|
Ab|-0--0--0-----0--0--0-----|-0--0--0-----0--0--0-----|
Eb|-------------------------|-------------------------|
   lieve.) what you've done to me.

Dm              
What I did to them, (What  I did to

    E5                        N.C.
eb|-------------------------|-10br-8----------7-------|
Bb|-------------------------|-------------------------|
F#|-9--9--9-----9--9--9-----|----------9---8------7---|
C#|-9--9--9-----9--9--9-----|-------------------------|
Ab|-7--7--7-----7--7--7-----|-------------------------|
Eb|-0--0--0-----0--0--0-----|-------------------------|
//////////////////////////////////////////////////////\
eb|-------------------------|-------------------------|
Bb|-------------------------|-------------------------|
F#|-------------------------|-9-----------------------|
C#|-------------------------|-----10----------9-------|
Ab|-------------------------|---------7---6-------5---|
Eb|-------------------------|-------------------------|
    them.) you've  done  to  me.


Guitar Solo

    A5                        E5
eb|-------------------------|-------------------------|
Bb|-------------------------|-12----12----12~~~-12\4//|
F#|-5---8/9--8--7-----5-----|-//----//----------------|
C#|-------------------------|-//----//----------------|
Ab|-------------------------|-------------------------|
Eb|-------------------------|-------------------------|

    A5                        E5
eb|-------------------------|-------------------------|
Bb|/12----------------------|-------------------------|
F#|-----9-------------------|-------------------------|
C#|---------10--9-----7--9--|-9br-7--9----------------|
Ab|-------------------------|-----------7-------------|
Eb|-------------------------|-------------------------|

    A5                        Dm
eb|-------------------------|-------------22--20--19--|
Bb|-------12---13-13/15--17-|-17----------//--//--//--|
F#|----------9/-------------|-------------//--//--//--|
C#|-10-----------------17---|-------18*---------------|
Ab|----7/-------------------|-------------------------|
Eb|-1--&--2--&--3--&--4--&--|-1--&--2--&--3--&--4--&--|

   E5
eb|-22----20----19\16-19bb--|-19--17------~~~~~~~~~~~~|
Bb|-//----//----//----------|-------------------------|
F#|-//----//----//----------|-------------------------|
C#|-------------------------|-------------------------|
Ab|-------------------------|-------------------------|
Eb|-------------------------|-------------------------|


Chorus

    E5      B5 C5             E5       B5 C5
eb|----16-------------------|----16-------------------|
Bb|----19bbbbbbb------------|----19bbbbbbb------------|
F#|-------------------------|-------------------------|
C#|-------------------------|-------------------------|
Ab|-------------------------|-------------------------|
Eb|-------------------------|-------------------------|
    Getchoo, uh huh.          Getchoo, uh huh.

    E5      B5 C5
eb|----16-------------------|
Bb|----19bbbbbbb------------|
F#|-------------------------|
C#|-------------------------|
Ab|-------------------------|
Eb|-------------------------|
    Getchoo, uh huh.

E5
Getchoo, getchoo, getchoo.


Outro

    A5                        E5
eb|-5--5--5--5--5--5--5--5--| |-7--7--7--7--7--7--|
Bb|-x--x--x--x--x--x--x--x--|3|-x--x--x--x--x--x--|
F#|-2--2--2--2--2--2--2--2--|-|-4--4--4--4--4--4--|
C#|-------------------------|4|-------------------|
Ab|-------------------------| |-------------------|
Eb|-------------------------| |-------------------|
//////////////////////////////////////////////////\
eb|-------------------------| |-------------------|
Bb|-------------------------|3|-------------------|
F#|-------------------------|-|-------------------|
C#|-2--2--2--2--2--2--2--2--|4|-------------------|
Ab|-0--0--0--0--0--0--0--0--| |-2--2--2--2--2--2--|
Eb|-------------------------| |-0--0--0--0--0--0--|(Repeat this pattern in outro)
    This is beginning to hurt.       (Oh       huh.)

      A5                          E5
eb| |-8--8--8--8--8--8--8--8--| |-10-10-10-10-10-10-|
Bb|4|-x--x--x--x--x--x--x--x--|3|-x--x--x--x--x--x--|
F#|-|-5--5--5--5--5--5--5--5--|-|-7--7--7--7--7--7--|
C#|4|-------------------------|4|-------------------|
Ab| |-------------------------| |-------------------|
Eb| |-------------------------| |-------------------|
      This is beginning to hurt.       (Oh       huh.)

    A5                            D5
eb| |-12-12-12-12-12-12-12-12-| |-13----------------|
Bb|4|-x--x--x--x--x--x--x--x--|3|-x-----------------|
F#|-|-9--9--9--9--9--9--9--9--|-|-10----------------|
C#|4|-------------------------|4|-//----------------|
Ab| |-------------------------| |-//----------------|
Eb| |-------------------------| |-------------------|
////////////////////////////////////////////////////\
eb| |-------------------------| |-------------------|
Bb|4|-------------------------|3|-------------------|
F#|-|-------------------------|-|-------------------|
C#|4|-2--2--2--2--2--2--2--2--|4|-0--0--0--0--0--0--|
Ab| |-0--0--0--0--0--0--0--0--| |-0--0--0--0--0--0--|
Eb| |-------------------------| |-------------------|
      This is beginning to hurt.    (Oh,         uh huh.)
      E5                          E
eb| |-15----------------------| |-16----------------|
Bb|4|-x-----------------------|3|-x-----------------|
F#|-|-12----------------------|-|-13----------------|
C#|4|-//----------------------|4|-//----------------|
Ab| |-//----------------------| |-//----------------|
Eb| |-------------------------| |-------------------|
////////////////////////////////////////////////////\
eb| |-------------------------| |-------------------|
Bb|4|-------------------------|3|----------6--7--8--|
F#|-|-------------------------|-|-7--8--9--x--x--x--|
C#|4|-9--9--9--9--9--9--9--9--|4|-x--x--x--4--5--6--|
Ab| |-7--7--7--7--7--7--7--7--| |-5--6--7-----------|
Eb| |-------------------------| |-------------------|
      This is beginning to hurt.       (Oh,)

    Am
eb|-17-17-17\\\\\\\\\\||
Bb|-17-17-17\\\\\\\\\\||
F#|-17-17-17\\\\\\\\\\||
C#|-------------------||
Ab|-------------------||
Eb|-------------------||
///////////////////////\
eb|-10----8-----------||
Bb|-10----10----------||
F#|-x--9--x-----------||
C#|-7--x--7-----------||
Ab|----7--------------||
Eb|-------------------||
Comments