Weezer - Funtime Chords & Tabs

 

Funtime Chords & Tabs

Weezer Chords & Tabs

Version: 1 Type: Tab 0 ratings
1 star 2 stars 3 stars 4 stars 5 stars
comments

Funtime Tab

FUNTIME TAB

TABBED BY PEANUTFARMER

The audio is far too poor of quality to listen how it goes precisely,
but it's pretty good!

I figured it all out but the solo, cause its too long and fast for me
too do now, I'll prob post is separately or make a VER. 2 with any
other changes (if I find any).  I think, however, this is a good way
to play it.


VERSES:
                  Light and Separated
e--6---6/8---10/6---6--6-6--6-6--6-6---------------------------------|
b--8---8/10--10/6---6--6-6--6-6--6-6---------------------------------|
g--------------------------------------------------------------------|
d--------------------------------------------------------------------|
a--------------------------------------------------------------------|
E--------------------------------------------------------------------|


The Little Break - This then proceeds through first half of second verse,
when second half begins, the first verse is played again through that.


                      Light and Separated
e--9---9-/-11---13/9---9--9-9--9-9--9-9------------------------------|
b--11--11/-13---13/9---9--9-9--9-9--9-9------------------------------|
g--------------------------------------------------------------------|
d--------------------------------------------------------------------|
a--------------------------------------------------------------------|
E--------------------------------------------------------------------|
[ Tab from: http://www.guitartabs.cc/tabs/w/weezer/funtime_tab.html ]
CHORUS:
                   Light and Separated
e--------------------------------------------------------------------|
b--------------------------------------------------------------------|
g--6--6/8----10/6---6--6-6--6-6--6-6---------------------------------|
d--8--8/10---10/6---6--6-6--6-6--6-6---------------------------------|
a--------------------------------------------------------------------|
E--------------------------------------------------------------------|

SOLO COMING SOON

THIS WILL GET YOU STARTED IF YOU ATTEMPT IT YOURSELF

     hold bend     ~                   ~
e--13*b14-14-13-11-13------------------------------------------------|
b---------------------14h16-14h16--14-14-----------------------------|
g--------------------------------------------------------------------|
d--------------------------------------------------------------------|
a--------------------------------------------------------------------|
E--------------------------------------------------------------------|

*Indicates a grace bend:  strike the note and bend up as
indicated.  The first note does not take up any time.

OUTRO of SOLO
Guitar 2 - Play 4 times.  On last time, slam the last G#s.


e--------------------------------------------------------------------|
b--------------------------------------------------------------------|
g-------------8--8-8-8-8-8-8-8-8-------------------------------------|
d--8--8-6---8-6--6-6-6-6-6-6-6-6-------------------------------------|
a--6--6-4---6--------------------------------------------------------|
E--------------------------------------------------------------------|

OUTRO

PLAY CHORUS and Slam chords like above as it starts to end, substituted
for last part of chorus.

e--------------------------------------------------------------------|
b--------------------------------------------------------------------|
g--6--6/8----10/6--8-8-8-8-8-8-8-8-----------------------------------|
d--8--8/10---10/6--6-6-6-6-6-6-6-6-----------------------------------|
a--------------------------------------------------------------------|
E--------------------------------------------------------------------|
Comments