Weezer - Freak Me Out Chords & Tabs

 

Freak Me Out Chords & Tabs

Weezer Chords & Tabs

Version: 1 Type: Bass Tab 0 ratings
1 star 2 stars 3 stars 4 stars 5 stars
comments

Freak Me Out Bass Tab

Song - Freak Me Out
Album - Make Believe
Artist - Weezer
Tabbed By - David J, aka Maddenman2000
E-Mail - Maddenman20002000@yahoo.com

I'm not too sure that I gotted Verse 2 correctly
If something is wrong please correct it
I think I might of missed a few notes, but It
should be easy to know what the notes are.

Every note rings out

Intro/Chorus
G----------------------------|    Play at 0:30G--------------|
D----------------------------|                D--------------|
A----------------------------|                A--6-----------|
E---6-----0------------------|                E------6----0--|
[ Tab from: http://www.guitartabs.cc/tabs/w/weezer/freak_me_out_btab.html ]
Verse 1
G----------------------------------|
D----------------------------------|
A----------------------------------|
E-6--3--2--7-7-7----0----6---2--0--|

Verse 2
G----------------------------|
D----------------------------|
A----------------------------|
E--6--6--0--0--0----6----0---|

Ending
G--------------------|
D--------------------|
A--------------------|
E--6----0---6--------|

Order of Play

Intro      0:02
Verse 1    0:47
Chorus     1:02
Verse 1    1:27
Verse 2    1:42
Chorus     2:03
Verse 1    2:44
Chorus     2:57
Ending     3:12

This is my first tab that I've made so please rate
Comments