Weezer - El Scorcho Chords & Tabs

 

El Scorcho Chords & Tabs

Weezer Chords & Tabs

Version: 7 Type: Tab 0 ratings
1 star 2 stars 3 stars 4 stars 5 stars
comments

El Scorcho Tab

ok ive read all the tabs for this song and they are wrong! this is right and i know it! 
Intro/Verse 
|--------------------|--------------------|  
|--------------------|--------------------|  
|--------5-----------|--------10----------| 
|-----------6/11-----|------------11/6----|
|-----6--------------|-----11-------------| 
|--4-----------------|--9-----------------| 
play 5 times for intro then go in to the verse which is the same riff  


Chorus 
|--------------------| 
|--------------------|
|--------------------|
|----------4-4-4-4---|      
|--4-4-4-4-2-2-2-2---| 
|--2-2-2-2-----------|


Bridge 
|--------------------|--------------------| 
|--------------------|--------------------|
|--------------------|--------------------|
|---------4-4-4-4----|---------6-6-6-6----|
|-4-4-4-4-2-2-2-2----|-6-6-6-6-4-4-4-4----|
|-2-2-2-2------------|-4-4-4-4------------|   


Solo 
|-------------------------------------------------| 
|-----------------------11-9-8h9-----13-----11h13-| 
|-----------------9--8------------9---------------| 
|---8-10----6--8------------------------13--------| 
|---------7---------------------------------------| 
|-------------------------------------------------|  

pattern 
intro 
verse 
chorus 
verse 
chorus 
bridge 
solo 
verse 
chorus   
[ Tab from: http://www.guitartabs.cc/tabs/w/weezer/el_scorcho_tab_ver_7.html ]
lyrics 
god damn you half japanease girls 
you do it to me every time  
oh the red hed said you shred the cello 
and im jello baby 
but you wont talk wont look wont think of me 
im the epidome 
a public enemy 
whyd you wannago and do me like that 
come down the street and dance with me 

im a lot like you so please 
hello 
im here 
im waiting 
i think id me good for you 
and youd be good for me 

i asked you to go to the green day concert 
you said you never heard of them 
how cool is that 
so i went to your room and read your diary 
watching grunge leg drop new jack through a press table 
then my heart stopped listening to cio cio san
fall in love all over again 

im a lot like you so please 
hello 
im here 
im waiting 
i think id be goog for you
and youd be good for me 

how stupid is it
i cant talk bout it 
i gotta sing about it 
and make a record of (my heart) 
how stupid is it 
wont you give me a minute just to come up to me 
and to say hello 
how stupid is it 
for alli know you want me too
but maybe you just dont know what to do
and maybe you scared to say im falling for you 

i wish i could get my head outta the sand
cause i think wed make a good team
and you would keep my finger nails clean
but thats just a stupid dream that i wont realize
cause i cant even look in your eyes without shaking and i aint faking
ill bring home the turkey if you bring home the bacon 

im a lot like you so please
hello 
im here 
im waiting
i think id be good for you 
and youd be good for me 
WHOO HOO! 
im a lot like you 
im a lot like you (im waiting)
i think id be good for you and you (youd) be good for me  


ya thats all its really simple once you get the hang of it
Comments