Weezer - Dope Nose Chords & Tabs

 

Dope Nose Chords & Tabs

Weezer Chords & Tabs

Version: 3 Type: Tab 0 ratings
1 star 2 stars 3 stars 4 stars 5 stars
comments

Dope Nose Tab

   
-------------------------------------------------------------------------------
			     Dope Nose - Weezer
-------------------------------------------------------------------------------
Song written by River Cuamo
Tabbed by:Unregistered

Standard Tunning(EADGBe)
Standard Tunning for the bass:(EADG)
Guitar 1 plays with distortion throught the whole song

Guitar 1:intro/Oh, oh oh oh, oh oh oh, oh oh oh...
e|-------------------|
B|-------------------|
G|-3-3-3--0-0--3-3-3-|
D|-3-3-3--0-0--3-3-3-|  x2
A|-1-1-1--1-1--1-1-1-|
E|-------------------|

Gutiar 2:oh, oh oh oh, oh oh oh, oh oh oh
e|-0-0-0--0-0--0-0-0-|
B|-0-0-0--0-0--0-0-0-|
G|-7-7-7--5-5--7-7-7-|
D|-8-8-8--6-6--8-8-8-|  x2
A|-8-8-8--6-6--8-8-8-|
E|-6-6-6--4-4--6-6-6-|

Bass: oh, oh oh oh, oh oh oh, oh oh oh
G|-------------------|
D|-------------------|
A|-------------------|  x2
E|-6-6-6--4-4--6-6-6-|

Guitar 1:verse
e|----------------------------------------|
B|----------------------------------------|
G|-3-3-3--0-0--3-3-3--0-0-----------3-3-3-|  x2
D|-3-3-3--0-0--3-3-3--0-0--3-3-3-3--3-3-3-|
A|-1-1-1--1-1--1-1-1--1-1--3-3-3-3--1-1-1-|
E|-------------------------1-1-1-1--------|
Dept on my head, wasting time, on my own.
Sleep rescue me, take me back to my home.(oh take me home)

Guitar 2:verse
e|-0-0-0--0-0--0-0-0--0-0--0-0-0-0--0-0-0-|
B|-0-0-0--0-0--0-0-0--0-0--0-0-0-0--0-0-0-|
G|-7-7-7--5-5--7-7-7--5-5--2-2-2-2--7-7-7-|
D|-8-8-8--6-6--8-8-8--6-6--3-3-3-3--8-8-8-|  x2
A|-8-8-8--6-6--8-8-8--6-6--3-3-3-3--8-8-8-|
E|-6-6-6--4-4--6-6-6--4-4--1-1-1-1--6-6-6-|

Bass:Verse
G|---------------------------------------|
D|---------------------------------------|
A|---------------------------------------|  x2
E|-6-6-6--4-4-6-6-6--4-4--1-1-1-1--6-6-6-|

Guitar 1:chorus
e|------------------|                 e|-----------------|
B|------------------|                 B|-----------------|
G|-3-3--5-5-5-5-5-5-|                 G|-6-6-6-6-6-6-6-6-|
D|-3-3--5-5-5-5-5-5-|x4               D|-6-6-6-6-6-6-6-6-|
A|-1-1--3-3-3-3-3-3-|                 A|-4-4-4-4-4-4-4-4-|
E|------------------|                 E|-----------------|
For the times,                         oh, this dope nose          
that you want and go and
Bust rhymes real slow
Ill apper slap you on the face and 
enjoy the show

Guitar 2:chorus licks(played with chorus pedal)
e|-6h-5h-3p----------|----------------|-16h-15h-13p-|
B|----------6h-3h-1p-|-1p-3h-3h-1p----|-------------|
G|-------------------|-------------3h-|-------------|
D|-------------------|----------------|-------------|
A|-------------------|----------------|-------------|
E|-------------------|----------------|-------------|

Bass:chorus
G|-----------------|        G|-----------------|
D|-----------------|        D|-----------------|
A|-1-1-3-3-3-3-3-3-|  x4    A|-4-4-4-4-4-4-4-4-|
E|-----------------|        E|-----------------|

Guitar 1:intro/Oh, oh oh oh, oh oh oh, oh oh oh...
e|-------------------|
B|-------------------|
G|-3-3-3--0-0--3-3-3-|
D|-3-3-3--0-0--3-3-3-|
A|-1-1-1--1-1--1-1-1-|
E|-------------------|

Gutiar 2:oh, oh oh oh, oh oh oh, oh oh oh
e|-0-0-0--0-0--0-0-0-|
B|-0-0-0--0-0--0-0-0-|
G|-7-7-7--5-5--7-7-7-|
D|-8-8-8--6-6--8-8-8-|
A|-8-8-8--6-6--8-8-8-|
E|-6-6-6--4-4--6-6-6-|

Bass: oh, oh oh oh, oh oh oh, oh oh oh
G|-------------------|
D|-------------------|
A|-------------------|  x2
E|-6-6--6-4-4--6-6-6-| 

Guitar 1:verse
e|----------------------------------------|
B|----------------------------------------|
G|-3-3-3--0-0--3-3-3--0-0-----------3-3-3-|  x2
D|-3-3-3--0-0--3-3-3--0-0--3-3-3-3--3-3-3-|
A|-1-1-1--1-1--1-1-1--1-1--3-3-3-3--1-1-1-|
E|-------------------------1-1-1-1--------|
chesse, smells so good, on a burnt piece of lamb(piece of lamb?)
Fag, of the year, who can beat up your man

Guitar 2:verse
e|-0-0-0--0-0--0-0-0--0-0--0-0-0-0--0-0-0-|
B|-0-0-0--0-0--0-0-0--0-0--0-0-0-0--0-0-0-|
G|-7-7-7--5-5--7-7-7--5-5--2-2-2-2--7-7-7-|
D|-8-8-8--6-6--8-8-8--6-6--3-3-3-3--8-8-8-|  x2
A|-8-8-8--6-6--8-8-8--6-6--3-3-3-3--8-8-8-|
E|-6-6-6--4-4--6-6-6--4-4--1-1-1-1--6-6-6-|

Bass:verse
G|----------------------------------------|
D|----------------------------------------|
A|----------------------------------------|  x2
E|-6-6-6--4-4--6-6-6--4-4--1-1-1-1--6-6-6-|

Guitar 1:chorus
e|------------------|                 e|-----------------|
B|------------------|                 B|-----------------|
G|-3-3--5-5-5-5-5-5-|                 G|-6-6-6-6-6-6-6-6-|
D|-3-3--5-5-5-5-5-5-|x4               D|-6-6-6-6-6-6-6-6-|
A|-1-1--3-3-3-3-3-3-|                 A|-4-4-4-4-4-4-4-4-|
E|------------------|                 E|-----------------|
For the times,                         oh, this dope nose          
that you want and go and
Bust rhymes real slow
Ill apper slap you on the face and 
enjoy the show
[ Tab from: http://www.guitartabs.cc/tabs/w/weezer/dope_nose_tab_ver_3.html ]
Guitar 2:chorus licks(played with chorus pedal)
e|-6h-5h-3p----------|----------------|-16h-15h-13p-|
B|----------6h-3h-1p-|-1p-3h-3h-1p----|-------------|
G|-------------------|-------------3h-|-------------|
D|-------------------|----------------|-------------|
A|-------------------|----------------|-------------|
E|-------------------|----------------|-------------|

Bass:Chorus
G|----------------------|        G|-----------------|
D|----------------------|        D|-----------------|
A|-1-1--3-3-3-3-3-3-3-3-|  x4    A|-4-4-4-4-4-4-4-4-|
E|----------------------|        E|-----------------|

Guitar 1:intro/Oh, oh oh oh, oh oh oh, oh oh oh...
e|-------------------|
B|-------------------|
G|-3-3-3--0-0--3-3-3-|
D|-3-3-3--0-0--3-3-3-| x2
A|-1-1-1--1-1--1-1-1-|
E|-------------------|

Gutiar 2:oh, oh oh oh, oh oh oh, oh oh oh
e|-0-0-0--0-0--0-0-0-|
B|-0-0-0--0-0--0-0-0-|
G|-7-7-7--5-5--7-7-7-|
D|-8-8-8--6-6--8-8-8-| x2
A|-8-8-8--6-6--8-8-8-|
E|-6-6-6--4-4--6-6-6-|

Bass: oh, oh oh oh, oh oh oh, oh oh oh
G|-------------------|
D|-------------------|
A|-------------------| x2
E|-6-6-6--4-4--6-6-6-|

Guitar 1:solo
e|--------------------------------------------------------------|
B|--------------------------------------------------------------|
G|-15-15-15-15--13-13-13-13-------------------------------------|
D|---------------------------15-15-15-15--13-13-13-13-----13-15-|
A|-----------------------------------------------------15-------|
E|--------------------------------------------------------------|

e|-------------------------------------------------16-|
B|----------------------------------15-15-15-13-13-16-|
G|-------------------15-15-15-13-13-------------------|
D|-15-15-13-13-12-12----------------------------------|
A|----------------------------------------------------|
E|----------------------------------------------------|

e|-16h-15h-13p-16h-15h-13p-16h-15h-13p-16h-15h-13p-18----------|
B|----------------------------------------------------15-15-15-|
G|----------------------------------------------------15-15-15-|
D|-------------------------------------------------------------|
A|-------------------------------------------------------------|
E|-------------------------------------------------------------|

Guitar 2:play throughout solo
e|-0-0-0--0-0--0-0-0--0-0--0-0-0-0--0-0-0-|
B|-0-0-0--0-0--0-0-0--0-0--0-0-0-0--0-0-0-|
G|-7-7-7--5-5--7-7-7--5-5--2-2-2-2--7-7-7-|
D|-8-8-8--6-6--8-8-8--6-6--3-3-3-3--8-8-8-|  x2
A|-8-8-8--6-6--8-8-8--6-6--3-3-3-3--8-8-8-|
E|-6-6-6--4-4--6-6-6--4-4--1-1-1-1--6-6-6-|


Bass:play throughout solo
G|----------------------------------------|
D|----------------------------------------|
A|----------------------------------------|  x2
E|-6-6-6--4-4--6-6-6--4-4--1-1-1-1--6-6-6-|

Guitar 1:chorus
e|------------------|                 e|-----------------|
B|------------------|                 B|-----------------|
G|-3-3--5-5-5-5-5-5-|                 G|-6-6-6-6-6-6-6-6-|
D|-3-3--5-5-5-5-5-5-|x4               D|-6-6-6-6-6-6-6-6-|
A|-1-1--3-3-3-3-3-3-|                 A|-4-4-4-4-4-4-4-4-|
E|------------------|                 E|-----------------|
For the times,                         oh, this dope nose          
that you want and go and
Bust rhymes real slow
Ill apper slap you on the face and 
enjoy the show

Guitar 2:chorus licks(played with chorus pedal)
e|-6h-5h-3p----------|----------------|-16h-15h-13p-|
B|----------6h-3h-1p-|-1p-3h-3h-1p----|-------------|
G|-------------------|-------------3h-|-------------|
D|-------------------|----------------|-------------|
A|-------------------|----------------|-------------|
E|-------------------|----------------|-------------|

Bass:Chorus
G|----------------------|        G|-----------------|
D|----------------------|        D|-----------------|
A|-1-1--3-3-3-3-3-3-3-3-|  x4    A|-4-4-4-4-4-4-4-4-|
E|----------------------|        E|-----------------|


Guitar 1:intro/Oh, oh oh oh, oh oh oh, oh oh oh...
e|-------------------|
B|-------------------|
G|-3-3-3--0-0--3-3-3-|
D|-3-3-3--0-0--3-3-3-| x2
A|-1-1-1--1-1--1-1-1-|
E|-------------------|

Gutiar 2:oh, oh oh oh, oh oh oh, oh oh oh
e|-0-0-0--0-0--0-0-0-|
B|-0-0-0--0-0--0-0-0-|
G|-7-7-7--5-5--7-7-7-|
D|-8-8-8--6-6--8-8-8-| x2
A|-8-8-8--6-6--8-8-8-|
E|-6-6-6--4-4--6-6-6-|


Bass: oh, oh oh oh, oh oh oh, oh oh oh
G|-------------------|
D|-------------------|
A|-------------------|  x2
E|-6-6-6--4-4--6-6-6-|

Guitar 1:finale/ oh ohoh oh oh oh oh.
e|---------------|
B|---------------|
G|-3-3-3-3-3-3-3-|
D|-1-1-1-1-1-1-3-|
A|-1-1-1-1-1-1-1-|
E|---------------|

Guitar 2:finale
e|-0-0-0-0-0-0-0-|
B|-0-0-0-0-0-0-0-|
G|-6-6-6-6-6-6-7-|
D|-7-7-7-7-7-7-8-|
A|-7-7-7-7-7-7-8-|
e|-5-5-5-5-5-5-6-|

Bass:finale
G|---------------|
D|---------------|
A|-0-0-0-0-0-0-1-|
E|---------------|

enjoy!
===============================================================================

Comments