Weezer - Dope Nose Chords & Tabs

 

Dope Nose Chords & Tabs

Weezer Chords & Tabs

Version: 2 Type: Bass Tab 0 ratings
1 star 2 stars 3 stars 4 stars 5 stars
comments

Dope Nose Bass Tab

Ok, i know alot of people think this is different, but listen, and u can tell
its right.  Weezer is awsome and im the number 1 fan! Teh winz rocks.
                                                              =Brad=

*intro* 4x
1------------------------------------------------------------------------------
2------------------------------------------------------------------------------
3--2-2-2---2-2-2---------------------------------------------------------------
4-------0-------0--------------------------------------------------------------

*verse* 2x   (Debt, on my head...)
1------------------------------------------------------------------------------
2------------------------------------------------------------------------------
3--2-2-2---2-2-2----------2-2--2-22--------------------------------------------
4-------0-------0-2-2-2-2----0-----0-------------------------------------------

*pre-chorus* 2x (For, the times...)
1------------------------------------------------------------------------------
2-2------------------------44444-32--------------------------------------------
3---2222-------1-2-4----22-----------------------------------------------------
4--------2-2-2--------0---2----------------------------------------------------

*verse* 2x  (Cheese, smells so good...)
1------------------------------------------------------------------------------
2------------------------------------------------------------------------------
3--2-2-2---2-2-2----------2-2--2-22--------------------------------------------
4-------0-------0-2-2-2-2----0-----0-------------------------------------------

*pre-chorus* 2x (For, the times...)
1------------------------------------------------------------------------------
2-2------------------------44444-32--------------------------------------------
3---2222-------1-2-4----22-----------------------------------------------------
4--------2-2-2--------0---2----------------------------------------------------
[ Tab from: http://www.guitartabs.cc/tabs/w/weezer/dope_nose_btab_ver_2.html ]
*chorus*  1x (Ooooooohhhhhhh,  THIS DOPE NOSE!)
1------------------------------------------------------------------------------
2------------------------------------------------------------------------------
3------------------------------------------------------------------------------
4-33333333333------------------------------------------------------------------

*solo/ bridge*  2x
1------------------------------------------------------------------------------
2------------------------------------------------------------------------------
3--2-2-2---2-2-2----------2-2--2-22--------------------------------------------
4-------0-------0-2-2-2-2----0-----0-------------------------------------------

*pre-chorus* 2x (For, the times...)
1------------------------------------------------------------------------------
2-2------------------------44444-32--------------------------------------------
3---2222-------1-2-4----22-----------------------------------------------------
4--------2-2-2--------0---2----------------------------------------------------

*chorus*  1x (Ooooooohhhhhhh,  THIS DOPE NOSE!)
1------------------------------------------------------------------------------
2------------------------------------------------------------------------------
3------------------------------------------------------------------------------
4-33333333333------------------------------------------------------------------

*outro*  2x

1------------------------------------------------------------------------------
2------------------------------------------------------------------------------
3--2-2-2---2-2-2---------------------------------------------------------------
4-------0-------0--------------------------------------------------------------

1------------------------------------------------------------------------------
2------------------------------------------------------------------------------
3--2-2---2---------------------------------------------------------------------
4-0-0-00-----------------------------------------------------------------------
Comments