Weezer - Dont Let Go Chords & Tabs

 

Dont Let Go Chords & Tabs

Weezer Chords & Tabs

Version: 1 Type: Bass Tab 0 ratings
1 star 2 stars 3 stars 4 stars 5 stars
comments

Dont Let Go Bass Tab

Weezer - Don't Let Go
Tabbed By: Bert
EMail: loser_guitarist@hotmail.com
album: The Green Album

very easy song.

intro:
G|-----------------|----------------|----------------|----------------|
D|-0-0-0-0-0-0-0-0-|0-0-0-0-2-4-4-4-|----------------|5-5-5-4-4-4-2-2-|
A|-----------------|----------------|----------------|----------------|
E|-----------------|----------------|3-3-3-3-3-3-3-3-|----------------|
   1 + 2 + 3 + 4 + |1 + 2 + 3 + 4 + |1 + 2 + 3 + 4 + |1 + 2 + 3 + 4 + |

[ Tab from: http://www.guitartabs.cc/tabs/w/weezer/dont_let_go_btab.html ]
verse:
G|-----------------|----------------|----------------|----------------|
D|-0-0-0-0-0-0-0-0-|0-0-0-0-0-0-0-0-|----------------|----------------|
A|-----------------|----------------|----------------|----------------|
E|-----------------|----------------|3-3-3-3-3-3-3-3-|3-3-3-3-3-3-3-3-|
   1 + 2 + 3 + 4 + |1 + 2 + 3 + 4 + |1 + 2 + 3 + 4 + |1 + 2 + 3 + 4 + |

chorus:
G|-----------------|----------------|----------------|----------------|
D|-----------------|----------------|--------0---0---|----------------|
A|-----------------|----------------|2---2-----------|4---4---2---2---|
E|-2-2-2-2-2-2-2-2-|2-2-2-2-2-2-2-2-|----------------|----------------|
   1 + 2 + 3 + 4 + |1 + 2 + 3 + 4 + |1 + 2 + 3 + 4 + |1 + 2 + 3 + 4 + |

G|-----------------|----------------|----------------|----------------|
D|-----------------|----------------|----------------|----------------|
A|-----------------|----------------|0-0-0-0-0-0-0-0-|0-0-0-0-0-0-0-0-|
E|-0-0-0-0-0-0-0-0-|0-0-0-0-0-0-0-0-|----------------|----------------|
   1 + 2 + 3 + 4 + |1 + 2 + 3 + 4 + |1 + 2 + 3 + 4 + |1 + 2 + 3 + 4 + |

there you have it! easy enough.

tabbed out 10/21/02 by =bert=
Comments