Weezer - Death And Destruction Chords & Tabs

 

Death And Destruction Chords & Tabs

Weezer Chords & Tabs

Version: 2 Type: Tab 0 ratings
1 star 2 stars 3 stars 4 stars 5 stars
comments

Death And Destruction Tab

Tabbed by: Anthony Moore
Email: ant-dizzle409@sbcglobal.net

Played as though it抯 only done on one guitar.


Intro: (clean)
e|---------------9--------|
B|----10-----10-----------|
G|-------11--------9------|
D|-(0)--------------------|
A|------------------------|
E|------------------------|

Fig 1 (Tons of crunch, mid-low tone on the bass pickup)
e|------------------------|
B|------------------------|
G|-----6--------6---------|
D|--7--6--4--6--7---------|
A|--7--4--5--7--7---------|
E|--5-----2--4--5---------|

Verse: (clean)
"I can't say that you love me"
e|---------------------------------------------------------------------------|
B|---------------------------------------------------------------------------|
G|----7---7---7---7-------6---6---6---6-------4---4---4-4--------------------|
D|--9---9---9---9---9---7---7---7---7---7---4---4---4------7--6--6--6h7p6-4--|
A|---------------------------------------------------------------------------|
E|---------------------------------------------------------------------------|

"So I cry and I'm hurting"
e|----------------------------------------------------7𧯝𦴘4梙--5-------|
B|-----------------10----------------------------------------------------h7--|
G|----7---7--9--11---------6---6---6---6------4---4--------------------------|
D|--9---9----------------7---7---7---7---7--4---4----------------------------|
A|---------------------------------------------------------------------------|
E|---------------------------------------------------------------------------|

Fig 1 (Crunchy distortion)
e|------------------------|
B|------------------------|
G|-----6--------6---------|
D|--7--6--4--6--7---------|
A|--7--4--5--7--7---------|
E|--5-----2--4--5---------|

Verse: (clean)
"Every time that I call you"
e|---------------------------------------------------------------------------|
B|---------------------------------------------------------------------------|
G|----7---7---7---7-------6---6---6---6-------4---4---4----------------------|
D|--9---9---9---9---9---7---7---7---7---7---4---4---4----7--6--6--6h7p6-4----|
A|---------------------------------------------------------------------------|
E|---------------------------------------------------------------------------|
[ Tab from: http://www.guitartabs.cc/tabs/w/weezer/death_and_destruction_tab_ver_2.html ]
"You find some way to ditch me"
e|---------------------------------------------------------------------------|
B|-----------------10--------------------------------------------------------|
G|----7---7--9--11---------6---6---6---6------4---4---4-4--------------------|
D|--9---9----------------7---7---7---7---7--4---4---4------7--6--6--6h7p6-4--|
A|---------------------------------------------------------------------------|
E|---------------------------------------------------------------------------|

Chorus: (same tone as Fig 1)
"So I'll learn to turn and look the other way..."
e|------------------------------------------------------------------------|
B|--7--7--5-5-------------------------------------------------------------|
G|--7--7--6-6--------4--4-------------------6-7-9-7-6-7-6---6-------------|
D|--7--7--6-6--4--4--4--4-------------6-7-9---------------9---9-7-9-7-6---|
A|--5--5--4-4--4--4--2--2-----------7-------------------------------------|
E|-------------2--2--2--2-------------------------------------------------|

Fig 1: (Crunchy distortion)
e|------------------------|
B|------------------------|
G|-----6--------6---------|
D|--7--6--4--6--7---------|
A|--7--4--5--7--7---------|
E|--5-----2--4--5---------|

Solo: (w/Fig 1 Tone)    Parentheses = Palm Mute
e|---------------------------------------------------------------------------|
B|---------------------------------------------------------------------------|
G|---------------------------------------------------------------------------|
D|---7/9-7-6h7p6---------------6---------------------------------------------|
A|----------------9p7--(9-7-9)---(9-7-5-7-5-4)-5-(4)-2-(4-2)-------------0---|
E|-----------------------------------------------------------(5-4-5-4-2)-----|

e|----------------------------------|
B|----------------------------------|
G|--------------6-----9b10b9--------|
D|---7--9b10b9----------------------|
A|-----------------7----------------|
E|----------------------------------|

Chorus: (same tone as Fig 1)
"So I'll learn to turn and look the other way..."
e|------------------------------------------------------------------------|
B|--7--7--5-5-------------------------------------------------------------|
G|--7--7--6-6--------4--4-------------------6-7-9-7-6-7-6---6-------------|
D|--7--7--6-6--4--4--4--4-------------6-7-9---------------9---9-7-9-7-6---|
A|--5--5--4-4--4--4--2--2-----------7-------------------------------------|
E|-------------2--2--2--2-------------------------------------------------|

Fig 1 (Crunchy distortion)
e|------------------------|
B|------------------------|
G|-----6--------6---------|
D|--7--6--4--6--7---------|
A|--7--4--5--7--7---------|
E|--5-----2--4--5---------|

Outro
Guitar 1
e|--------------------------------------4-----|
B|--------------------------------------2-----|
G|-----------------8-8--7-7--6-6--4-4---2-----|
D|--4-4--3-3--2-2--8-8--7-7--6-6--4-4---2-----|
A|--4-4--3-3--2-2--6-6--5-5--4-4--2-2---0-----|
E|--2-2--1-1--0-0-----------------------------|
Comments