Weezer - Damage In Your Heart Chords & Tabs

 

Damage In Your Heart Chords & Tabs

Weezer Chords & Tabs

Version: 2 Type: Tab 0 ratings
1 star 2 stars 3 stars 4 stars 5 stars
comments

Damage In Your Heart Tab

   
title : the damage in your heart 
band  : weezer
album : make believe
tabber: 

tuning: standard

~  = vibrato ,let it ring for short time
~~ = vibrato ,let it ring for long time
/  = slide 
h  = hammer

just listen to the song carefully then you'll get it!

intro:
e--9~----9h10~~--9--7----9--7--5----10--9--7--|--5-------7-------9-------10-12------|
B--9~-----------------------------------------|--5-(2x)--7-(2x)--9-(2x)--10-12-(2x)-|
G---------------------------------------------|-------------------------------------|
D---------------------------------------------|-------------------------------------|
A---------------------------------------------|-------------------------------------|
E---------------------------------------------|-------------------------------------|
   the vibrato rings up to the end of intro    (this part's fast but not much heard)


verse:
"one more time....
guitar1		       
e-----------------------------------------|
B-----------------------------------------|  
G---7---3---5----------7---3---5---5------| 
D---7---3---5---6------7---3---5---5------| 
A---5---1---3---6------5---1---3---3------| 
E---------------4-------------------------|

guitar2
e--9~-----10~--9--7----9--7--5----7--5--4--|--10--9--14~~-|
B--9~-----10~------------------------------|--------------|
G------------------------------------------|--------------|
D------------------------------------------|--------------|
A------------------------------------------|--------------| 
E------------------------------------------|--------------|(2x) 


chorus:
"let it go....
e---------------------|--10--9--14~~--|
B---------------------|---------------|
G---7---9---11---9----|---------------|
D---7---9---11---9----|---------------|
A---5---7---9----7----|---------------|
E---------------------|---------------|(2x)


"i can't tell you....
guitar1		           
e-----------------------------------------------|  
B-----------------------------------------------|  
G-----------------------------------------------|  
D---7----9----11-----11--9--7----9----11---9~---|  
A---7----9----11-----11--9--7----9----11---9~---|   
E---5----7----9------9---7--5----7----9----7~---|

guitar2
e--10~---10h12---9----9~--10~--10-10h12---9~----|
B-----------------------------------------------|
G-----------------------------------------------|
D-----------------------------------------------|
A-----------------------------------------------| 
E-----------------------------------------------|(2x) 

"one more tear....
e------------------------------------|--10--9--14~~--|
B------------------------------------|---------------|
G--7---3---5----------7---3---5--5---|---------------|
D--7---3---5---6------7---3---5--3---|---------------|
A--5---1---3---6------5---1---3--3---|---------------|
E--------------4---------------------|---------------|(2x)


repeat chorus

"i can't tell you....
guitar1		           
e-----------------------------------------------|  
B-----------------------------------------------|  
G-----------------------------------------------|  
D---7----9----11-----11--9--7----9----11---9~---|  
A---7----9----11-----11--9--7----9----11---9~---|   
E---5----7----9------9---7--5----7----9----7~---|
[ Tab from: http://www.guitartabs.cc/tabs/w/weezer/damage_in_your_heart_tab_ver_2.html ]
guitar2
e--10~---10h12---9----9~--10~--10-10h12---9~----|
B-----------------------------------------------|
G-----------------------------------------------|
D-----------------------------------------------|
A-----------------------------------------------| 
E-----------------------------------------------|(2x) 


solo:
guitar1
e--9~-----10~--9--7--------9-10~-9-7--5-----12-12-12-12--10--9--9-10-7-7-7---|
B----------------------------------------------------------------------------|
G----------------------------------------------------------------------------|
D----------------------------------------------------------------------------|
A----------------------------------------------------------------------------|
E----------------------------------------------------------------------------|

guitar2
e-----------------------------9-9-----------16-16h17-16-14-12--12/14---|
B----------------------------------------------------------------------|
G----6---6-----6-6h7-6-------------------------------------------------|
D--7---7---7-------------9-7-------------------------------------------|
A----------------------------------------------------------------------|
E----------------------------------------------------------------------|


"one more tear....
e------------------------------------|--10--9--14~~--|
B------------------------------------|---------------|
G--7---3---5----------7---3---5--5---|---------------|
D--7---3---5---6------7---3---5--3---|---------------|
A--5---1---3---6------5---1---3--3---|---------------|
E--------------4---------------------|---------------|


repeat chorus


"i can't tell you....
guitar1		           
e-----------------------------------------------|  
B-----------------------------------------------|  
G-----------------------------------------------|  
D---7----9----11-----11--9--7----9----11---9~---|  
A---7----9----11-----11--9--7----9----11---9~---|   
E---5----7----9------9---7--5----7----9----7~---|  

guitar2
e--10~---10h12---9----9~--10~--10-10h12--9~-----|
B-----------------------------------------------|
G-----------------------------------------------|
D-----------------------------------------------|
A-----------------------------------------------| 
E-----------------------------------------------|(2x) 

"i can't tell you , i can't tell you........
guitar1		           
e-----------------------------------------------|  
B-----------------------------------------------|  
G-----------------------------------------------|  
D---7----9----11-----11--9--7----9----11---9~---|  
A---7----9----11-----11--9--7----9----11---9~---|   
E---5----7----9------9---7--5----7----9----7~---|  

guitar2
e--9-9-9-9--10-10-10-10--12-12-12-12--9-9-9-9---|
B-----------------------------------------------|
G-----------------------------------------------|
D-----------------------------------------------|
A-----------------------------------------------|
E-----------------------------------------------|(2x)


last part

e---5~~--------4~~---------4~~---------2~~---------4~~------|  
B---5~~--------4~~---------4~~---------2~~---------4~~------|  
G---x----------x-----------x-----------x-----------x--------|  
D---7~~--------6~~---------6~~---------4~~---------6~~------|  
A---7~~--------6~~---------6~~---------4~~---------6~~------|   
E---5~~--------4~~---------4~~---------2~~---------4~~------| 

end


if the tab is wrong just mail me at ponga_8
hi s ate ko mico!
Comments