Weezer - Crab Chords & Tabs

 

Crab Chords & Tabs

Weezer Chords & Tabs

Version: 1 Type: Bass Tab 0 ratings
1 star 2 stars 3 stars 4 stars 5 stars
comments

Crab Bass Tab

   
Weezer - Crab
Submitted By: Jason Lee
EMail: loser_guitarist@hotmail.com
album: The Green Album (2000)

Intro/Chorus
G-----------------|----------------|----------------|----------------|
D-----------------|----------------|----------------|----------------|
A-3-3-3-3-3-3-3-3-|----------------|5-5-5-5-5-5-5-5-|----------------|
E-----------------|0-0-0-0-0-0-0-0-|----------------|5-5-5-5-5-5-5-5-|

G-----------------|----------------|----------------|---------0-1-2--|
D-----------------|----------------|----------------|---0-1-2--------|
A-3-3-3-3-3-3-3-3-|----------------|----------------|----------------|
E-----------------|5-5-5-5-5-5-5-5-|0-0-0-0-0-0-0-0-|----------------|
[ Tab from: http://www.guitartabs.cc/tabs/w/weezer/crab_btab.html ]
Verse
G-----------------|----------------|----------------|----------------|
D-----------------|----------------|----------------|----------------|
A-0-0-0-0---------|0-0-0-0---------|----------------|3-3-3-3-3-3-3-3-|
E---------1-1-1-1-|--------0-0-0-0-|1-1-1-1-1-1-1-1-|----------------|

G-----------------|----------------|----------------|----------------|
D-----------------|----------------|----------------|----------------|
A-----------------|----------------|--------3-3-3-3-|----------------|
E-1-1-1-1-1-1-1-1-|0-0-0-0-0-0-0-0-|1-1-1-1---------|1-1-1-1-3-3-3-3-|

G-----------------|------------------|
D-----------------|------------------|
A-3-3-3-3-3-3-3-3-|3-3-3-3-3-3-3-3-3-|
E-----------------|------------------|

tabbed out 10/29/02 by =bert=
Comments