Weezer - Burndt Jamb Chords & Tabs

 

Burndt Jamb Chords & Tabs

Weezer Chords & Tabs

Version: 7 Type: Tab 0 ratings
1 star 2 stars 3 stars 4 stars 5 stars
comments

Burndt Jamb Tab

   
-------------------------------------------------------------------------------
			     BURNDT JAMB - WEEZER
-------------------------------------------------------------------------------
This isn't taken from a song book,
but it seems right, and sounds good while listening to the CD.
And strummings probbably not right either,
so you pretty much have to listen to the song for this to sound good.

Tabbed by: The Spuz, of Xbox Adict .com (http://www.xboxadict.com)
Email: xboxadict@hotmail.com

Tuning: Normal

E --44444---4-2222222---55555---4-4444444-
B --22222---2-2222222---55555---5-5555555-
G --22222---2-2222222---44444---4-4444444-
D ----------------------------------------
A ----------------------------------------
E ----------------------------------------
    
E --44444---4-2222222---55555---4-4444444-
B --22222---2-2222222---55555---5-5555555-
G --22222---2-2222222---44444---4-4444444-
D ----------------------------------------
A ----------------------------------------
E ----------------------------------------

E ----------------------------------------
B --2-xx-2-xx-2-x-2-x-2-xxxx--------------
G --2-xx-2-xx-2-x-2-x-2-xxxx--------------
D --2-xx-2-xx-2-x-2-x-2-xxxx--------------
A --0-xx-0-xx-0-x-0-x-0-xxxx--------------
E ----------------------------------------
    
E ----------------------------------------
B --3-xx-3-xx-3-x-3-x-xxxx--------------
G --4-xx-4-xx-4-x-4-x-xxxx--------------
D --4-xx-4-xx-4-x-4-x-xxxx--------------
A --2-xx-2-xx-2-x-2-x-xxxx--------------
E ----------------------------------------

E ----------------------------------------
B --2-xx-2-xx-2-x-2-xxxx------------------
G --2-xx-2-xx-2-x-2-xxxx------------------
D --2-xx-2-xx-2-x-2-xxxx------------------
A --0-xx-0-xx-0-x-0-xxxx------------------
E ----------------------------------------

E ----------------------------------------
B --3-xx-3-xx-3-x-3-xxxx------------------
G --4-xx-4-xx-4-x-4-xxxx------------------
D --4-xx-4-xx-4-x-4-xxxx------------------
A --2-xx-2-xx-2-x-2-xxxx------------------
E ----------------------------------------

E ----------------------------------------
B --4-xx-4-xx-4-x-4-xxxx------------------
G --5-xx-5-xx-5-x-5-xxxx------------------
D --5-xx-5-xx-5-x-5-xxxx------------------
A --3-xx-3-xx-3-x-3-xxxx------------------
E ----------------------------------------

E ----------------------------------------
B --7-xx-7-xx-7-x-7-xxxx------------------
G --7-xx-7-xx-7-x-7-xxxx------------------
D --7-xx-7-xx-7-x-7-xxxx------------------
A --5-xx-5-xx-5-x-5-xxxx------------------
E ----------------------------------------

E -9-9-9-9-9-9-9-9-7-7-7-7-7-7-7-7--------
B -9-9-9-9-9-9-9-9-7-7-7-7-7-7-7-7--------
G -9-9-9-9-9-9-9-9-9-9-9-9-9-9-9-9--------
D ----------------------------------------
A ----------------------------------------
E ----------------------------------------

E --44444---4-2222222---55555---4-4444444-
B --22222---2-2222222---55555---5-5555555-
G --22222---2-2222222---44444---4-4444444-
D ----------------------------------------
A ----------------------------------------
E ----------------------------------------

E ----------------------------------------
B --2-xx-2-xx-2-x-2-x-2-xxxx--------------
G --2-xx-2-xx-2-x-2-x-2-xxxx--------------
D --2-xx-2-xx-2-x-2-x-2-xxxx--------------
A --0-xx-0-xx-0-x-0-x-0-xxxx--------------
E ----------------------------------------
    
E ----------------------------------------
B --3-xx-3-xx-3-x-3-x-xxxx--------------
G --4-xx-4-xx-4-x-4-x-xxxx--------------
D --4-xx-4-xx-4-x-4-x-xxxx--------------
A --2-xx-2-xx-2-x-2-x-xxxx--------------
E ----------------------------------------

E ----------------------------------------
B --2-xx-2-xx-2-x-2-xxxx------------------
G --2-xx-2-xx-2-x-2-xxxx------------------
D --2-xx-2-xx-2-x-2-xxxx------------------
A --0-xx-0-xx-0-x-0-xxxx------------------
E ----------------------------------------

E ----------------------------------------
B --3-xx-3-xx-3-x-3-xxxx------------------
G --4-xx-4-xx-4-x-4-xxxx------------------
D --4-xx-4-xx-4-x-4-xxxx------------------
A --2-xx-2-xx-2-x-2-xxxx------------------
E ----------------------------------------

E ----------------------------------------
B --4-xx-4-xx-4-x-4-xxxx------------------
G --5-xx-5-xx-5-x-5-xxxx------------------
D --5-xx-5-xx-5-x-5-xxxx------------------
A --3-xx-3-xx-3-x-3-xxxx------------------
E ----------------------------------------

E ----------------------------------------
B --7-xx-7-xx-7-x-7-xxxx------------------
G --7-xx-7-xx-7-x-7-xxxx------------------
D --7-xx-7-xx-7-x-7-xxxx------------------
A --5-xx-5-xx-5-x-5-xxxx------------------
E ----------------------------------------

E -9-9-9-9-9-9-9-9-7-7-7-7-7-7-7-7--------
B -9-9-9-9-9-9-9-9-7-7-7-7-7-7-7-7--------
G -9-9-9-9-9-9-9-9-9-9-9-9-9-9-9-9--------
D ----------------------------------------
A ----------------------------------------
E ----------------------------------------
[ Tab from: http://www.guitartabs.cc/tabs/w/weezer/burndt_jamb_tab_ver_7.html ]
E -----------------------------------------------
B -----------------------------------------------
G ----------------5-7-9-------------------5-7-9--
D -7-7--7-5-7-5-7----------7-7--7-5-7-5-7--------
A -7-7---------------------7-7-------------------
E -5-5---------------------5-5-------------------

E -----------------------
B -----------------------
G ----------------5-7-9--
D -3-3--7-5-7-5-7--------
A -3-3-------------------
E -1-1-------------------

E -----------------------
B -----------------------
G ----------------5-7-9--
D -5-5--7-5-7-5-7--------
A -5-5-------------------
E -3-3-------------------

E -----------------------
B -----------------------
G ----------------5-7-9--
D -7-7--7-5-7-5-7--------
A -7-7-------------------
E -5-5-------------------

E -----------------------------------
B -----------------------------------
G -----------------------------------
D --7-7-7-7-7-7-7-7-7-7-7-7-7-7-7-7--
A --7-7-7-7-7-7-7-7-7-7-7-7-7-7-7-7--
E --5-5-5-5-5-5-5-5-5-5-5-5-5-5-5-5--

E --44444---4-2222222---55555---4-4444444-
B --22222---2-2222222---55555---5-5555555-
G --22222---2-2222222---44444---4-4444444-
D ----------------------------------------
A ----------------------------------------
E ----------------------------------------

E ----------------------------------------
B ----------------------------------------
G ----------------------------------------
D --7---7---7--9---9--11-12-11-7----------
A --------7------7------------------------
E ----------------------------------------

E --------------------------------------------------
B --------------------------------------------------
G ----------10--------------12--------------14------
D --9-9-9-9----11-11-11-11-----12-12-12-12------14--
A --------------------------------------------------
E --------------------------------------------------

E ----------------------------------------
B --2-xx-2-xx-2-x-2-xxxx------------------
G --2-xx-2-xx-2-x-2-xxxx------------------
D --2-xx-2-xx-2-x-2-xxxx------------------
A --0-xx-0-xx-0-x-0-xxxx------------------
E ----------------------------------------

E ----------------------------------------
B --3-xx-3-xx-3-x-3-xxxx------------------
G --4-xx-4-xx-4-x-4-xxxx------------------
D --4-xx-4-xx-4-x-4-xxxx------------------
A --2-xx-2-xx-2-x-2-xxxx------------------
E ----------------------------------------

E ----------------------------------------
B --2-xx-2-xx-2-x-2-xxxx------------------
G --2-xx-2-xx-2-x-2-xxxx------------------
D --2-xx-2-xx-2-x-2-xxxx------------------
A --0-xx-0-xx-0-x-0-xxxx------------------
E ----------------------------------------

E ----------------------------------------
B ----------------------------------------
G --1-1-1-1-1-1-1-1-----------------------
D --2-2-2-2-2-2-2-2-----------------------
A --2-2-2-2-2-2-2-2-----------------------
E ----------------------------------------

E -----------------------------------------------
B -----------------------------------------------
G ----------------5-7-9-------------------5-7-9--
D -7-7--7-5-7-5-7----------7-7--7-5-7-5-7--------
A -7-7---------------------7-7-------------------
E -5-5---------------------5-5-------------------

E -----------------------
B -----------------------
G ----------------5-7-9--
D -3-3--7-5-7-5-7--------
A -3-3-------------------
E -1-1-------------------

E -----------------------
B -----------------------
G ----------------5-7-9--
D -5-5--7-5-7-5-7--------
A -5-5-------------------
E -3-3-------------------

E -----------------------
B -----------------------
G ----------------5-7-9--
D -7-7--7-5-7-5-7--------
A -7-7-------------------
E -5-5-------------------

E -----------------------------------
B -----------------------------------
G -----------------------------------
D --7-7-7-7-7-7-7-7-7-7-7-7-7-7-7-7--
A --7-7-7-7-7-7-7-7-7-7-7-7-7-7-7-7--
E --5-5-5-5-5-5-5-5-5-5-5-5-5-5-5-5--

E --44444---4-2222222---55555---4-4444444-
B --22222---2-2222222---55555---5-5555555-
G --22222---2-2222222---44444---4-4444444-
D ----------------------------------------
A ----------------------------------------
E ----------------------------------------

E --44444---4-2222222---55555---4-4444444-
B --22222---2-2222222---55555---5-5555555-
G --22222---2-2222222---44444---4-4444444-
D ----------------------------------------
A ----------------------------------------
E ----------------------------------------

E --44444---4-2222222---55555---4-4444444-
B --22222---2-2222222---55555---5-5555555-
G --22222---2-2222222---44444---4-4444444-
D ----------------------------------------
A ----------------------------------------
E ----------------------------------------

E --44444---4-2222222---55555---4-4444444-
B --22222---2-2222222---55555---5-5555555-
G --22222---2-2222222---44444---4-4444444-
D ----------------------------------------
A ----------------------------------------
E ----------------------------------------


(Do next part quietly,
about 1 every 4 seconds 
and 2 frets higher than original chords)
(let last D ring)
play
D Dsus4 D Dsus4 D Dsus4 D
Comments