Weezer - Burndt Jamb Chords & Tabs

 

Burndt Jamb Chords & Tabs

Weezer Chords & Tabs

Version: 1 Type: Tab 0 ratings
1 star 2 stars 3 stars 4 stars 5 stars
comments

Burndt Jamb Tab

   
Burndt Jamb - Weezer
Album: Maladroit

Tabbed by Jordan Allgood

Standard Tuning

b= bend

(Clean)
e-----------------------------------------------------------
B--9-9-9-9-9---9-7-7-7--7-10-10-10-10-10---10-9-9-9--9------
G--6-6-6-6-6---6-6-6-6--6-7--7--7--7--7----7--7-7-7--7------
D-----------------------------------------------------------
A-----------------------------------------------------------
E-----------------------------------------------------------

Note: This is played a LITTLE different in some parts as far as
number of notes and picking pattern goes. In one part its palm 
muted but the notes and picking pattern stay the same.
[ Tab from: http://www.guitartabs.cc/tabs/w/weezer/burndt_jamb_tab.html ]
Tip: Use your index finger and pinky to play the first group of 
notes. Let your index finger barely touch the 4th string and let
your pinky lay over the 1st string. When you use your ring and 
middle fingers a little later, use the same technique. This 
allows you to alternate pick without fear of accidentally 
hitting a string your not supposed to.

(Heavily distorted)
e-----------------------------------------------------------
B-----------------------------------------------------------
G--------------5-7/9b---------------------------------------
D----7-5-7-5-7----------------------------------------------
A--0--------------------------------------------------------
E-----------------------------------------------------------

Tip: Use your index finger for notes on the fifth fret and your 
ring finger finger for notes on the seventh fret. If you don't
feel comfortable sliding with your ring finger, use your middle
finger or ring finger.

Good Luck!!!

P.S. Weezer is one of the best bands ever!!!
Comments