Weezer - Burndt Jamb Chords & Tabs

 

Burndt Jamb Chords & Tabs

Weezer Chords & Tabs

Version: 1 Type: Bass Tab 0 ratings
1 star 2 stars 3 stars 4 stars 5 stars
comments

Burndt Jamb Bass Tab

   The first time i heard this song, i liked the bass part a lot, and i really
wanted to know how to play it, so i checked to see if there were any tabs for it,
but there weren't so.......i decided to tab it myself.......i know its not
EXACTLY right, but its as close as i could get, i hope you like it!
[ Tab from: http://www.guitartabs.cc/tabs/w/weezer/burndt_jamb_btab.html ]
Intro/Verse  
G|----------------------------------------------------------------------|
D|----2-------------2------------2-------2-------------2-4-2--------2---|
A|--0---0---0-4-5-6------------4---4---0---0---0-4-5-6------------4---4-|
E|---------------------00----0----------------------------------0-------|
(it's almost impossible to write the correct rhythm on tabs, so listen to the
song to get the rhythm)

Chorus
G|-----2-2-0-2-2-00--5h7-------2-2-0-2-2-00-5h7------2-2-0-2-2-00-5h7--|
D|---------------------------------------------------------------------|
A|-0-----------------------0-------------------------------------------|
E|------------------------------------------------1--------------------|

G|-----2-2-0-2-2-00--5h7-------2-2-0-2-2-00--5h7------|
D|----------------------------------------------------|
A|-------------------------0-----------------------0--|
E|-3--------------------------------------------------|

Thats all, i hope you like it, its a great song!

WEEZER RULES!
Comments