Weezer - Blue Album Chords & Tabs

 

Blue Album Chords & Tabs

Weezer Chords & Tabs

Version: 1 Type: Bass Tab 0 ratings
1 star 2 stars 3 stars 4 stars 5 stars
comments

Blue Album Bass Tab

   
My name is Jonas

Verse:
G-------------------------|
D-------------------------|
A-3-3-3-----------------3-|
E------3-3-3-5-5-5-1-1-1--|

Chorus
G--------------------------|
D--------------------------|
A-3-3-3--------------------|
E------5-5-5-3-3-3-*0-1-2--|

last part of chorus
G------------------|
D------------------|
A-3-3-3------------|
E------5-5-5-1-1-1-|

Last bar of song
G----------------------------------|
D----------------------------------|
A----------------------------------|
E-1-1--1-1--1-1-1--4-4--4-4--4-4-4-|

No one else

Intro

|------------------------------------------|
|------------------------------------------|
|---7-7-7-6-6-6-4-4-4-2-2-2----------------|
|---------------------------5-4-2-4--------|

Verse.

|----------------------------------------------------------->
|----------------------------------------------------------->
|--------------------------------------------------2-2-2-2-->
|--0-0-0-0-0-0-0-0-5-5-5-5-4-4-4-4-2-2-2-2-2-2-2-2---------->

-----------------------------------------------------------------------|
-----------------------------------------------------------------------|
-------------------------------------------------------2-2-2-2-2-2-2-2-|
5-5-5-5-4-4-4-4-4-4-4-4-5-5-5-5-4-4-4-4-2-2-2-2-2-2-2-2----------------|

Pre chorus. Play 2x.

|---------------1-1----------------------|
|-----------2-2--------------------------|
|---4-4-4-4---------------------2-2------|
|-------------------2-2-2-2-4-4----------|

Chorus (play 4x):
|---------------------------------------------------------------------|
|---------------------------------------------------------------------|
|-------------------2-2-2-2-2-2-2-2-4-4-4-4-4-4-4-4-------------------|
|---0-0-0-0-0-0-0-0---------------------------------5-5-5-5-5-5-5-5---|

In the third measure of the chorus,  |-------------------|
this is played in place of the A(5). |-------------------|
The fourth is played the same as the |-------------2-2---|
first and second measures.           |-2-2-2-4-4-4-------|

The second round, starting with "My girl's got eyeballs..." is exactly
the same as the first part, except for the fact that the prechorus is
played four times. After the chorus is played, it kicks into the bridge:

|----------------------------------------------------------------------|
|----------------------------------------------------------------------|
|------------------------------------------------------------2---------|
|---4-4-4-4-4-4-4-4-5-5-5-5-5-5-5-5-4-4-4-4-4-4-4-4--5-5-4-4-----------|

World Has Turned and Left me here

Tuning: 1/2 step down

CHORUS
Gb|---------------------------------|
Db|---------------------------------|
Ab|-------5-5-5-5-5-2-2-2-3-3-3-3-3-|x4(most of the time)
Eb|-3-3-3---------------------------|

VERSE
Gb|-----------------------------------------------------------------|
Db|-----------------------------------------------------------------|
Ab|-----------------3-3-3-3-3-3-3-3-0-0-0-0-0-0-0-0-3-3-3-3-3-3-3-3-|x2
Eb|-0-0-0-0-0-0-0-0-------------------------------------------------|

PRECHORUS
Gb|-----------------------------------------------------------------|
Db|-----------------------------------------------------------------|
Ab|-2-2-2-2-2-2-2-2-3-3-3-3-3-3-3-3-2-2-2-2-2-2-2-2-3-3-3-3-5-5-5-5-|
Eb|-----------------------------------------------------------------|

GUITAR SOLO
Gb|-----------------------------------------------------------------|
Db|-----------------------------------------------------------------|
Ab|-----------------2-2-2-2-2-2-2-2-3-3-3-3-3-3-3-3-0-0-0-0-0-0-0-0-|x2
Eb|-3-3-3-3-3-3-3-3-------------------------------------------------|

Buddy Holy

dropped D tuning Db, Ab, Db, Gb,


1st,2nd verses

|---------------------------|-------------------------|-----------------|
|---------------------------|-------------------------|-----------------|
|------------4-----------4--|-----------4-------------|----------7------|
|---4--4--4-----4--4--4-----|--4--4--4-----4--4--6--6-|-7--7--7-----7---|


-----------|----------------------|-------------------------|-----------|
-----------|----------------------|-------------------------|-----------|
--------7--|----------7-----------|----------4-----------4--|-----------|
--7--7-----|-7--7--7-----7--7--7--|-4--4--4-----4--4--4-----|-4--4--4---|


			    Play fill 2nd time
----------------|-------------------------|----------------------------|
----------------|-------------------------|----------------------------|
-4--------------|-----------7-----------7-|-------------------4--4-----|
----4--4--6--6--|--7--7--7-----7--7--7----|-7--7--7--7--9--9-----------|


fill
|----------------------------|
|---4--4--4------------------|
|------------4---------------|
|---------------4--4--6--6---|


Pre-Chorus
|--------------------------|------------------------|-------------------|
|--------------------------|------------------------|-------------------|
|--5--5--5--5--5--5--5--5--|-4--4--4----------------|-5--5--5--5--5--5--|
|--------------------------|----------4--4--4--4--4-|-------------------|


-------|------------------------|------------------------|---------------|
-------|------------------------|------------------------|---------------|
--5--5-|-4--4--4----------------|-5--5--5--5--5--5--5--5/|12--12--12--12-|
-------|----------4--4--4--4--4-|------------------------|---------------|


  Chorus
-----------------|-------------------------|---------------------------|
-----------------|-------------------------|---------------------------|
--12--12--12--12-|-------------------------|---------------------------|
-----------------|--7--7--7--7--7--7--7--7-|-2--4--4--4--2--2--2--2----|


|------------------------|------------------------|---------------------|
|------------------------|------------------------|---------------------|
|------------------------|------------------------|---------------------|
|-7--7--7--7--7--7--7--7-|-2--4--4--4--2--2--2--2-|-4--4--4--4--4--4--4-|


-----|------------------------|------------------------|----------------|
-----|------------------------|------------------------|----------------|
-----|------------------------|------------------------|----------------|
--4--|-0--0--2--2--7--7--7--7-|-7--7--0--0--2--2--2--2-|/7--7--7--2--2/-|


----------------|
----------------|
----------------|
--7--7--7--7--7-|


Interlude
|------------------------|------------------------|---------------------|
|------------------------|-4--4--4-----4----------|---------------------|
|----------4-----------4-|----------4-------------|----------7----------|
|-4--4--4-----4--4--4----|----------------4--6--6-|-7--7--7-----7--7--7-|


----|---------------------------|
----|---------------------------|
--7-|----------7-----7--7-------|
----|-7--7--7-----7--------7--7-|

				    Bridge
|------------------------|-----------------------|---------------------|
|------------------------|-----------------------|---------------------|
|------------------------|-----------------------|---------------------|
|-7--7--0--0--2--2--2--2-|-7--7--7--2/7--7--7--7-|-7--7--7--2--4--2--4-|


|---------------------|------------------------|-----------------------|
|---------------------|------------------------|-----------------------|
|----0--2--4--2--0----|------------------------|----0--2--4--2--0------|
|-4-----------------4-|-7--7--7--7--2--4--2--4-|-4-----------------4---|


|------------------------|----------------------|-----------------------|
|------------------------|----------------------|-----------------------|
|------------------------|----0--2--4--2--0-----|-----------------------|
|-7--7--7--7--2--4--2--4-|-4-----------------4--|-7--7--7--7--7--2--4---|


-------|---------------------|
-------|---------------------|
-------|----0--2--4--2--0----|
-2--4--|-4-----------------4-|


Guitar Solo
|------------------------|------------------------|---------------------|
|------------------------|------------------------|---------------------|
|-5--5--5--5--5--5--5--5-|-4--4--4----------------|-5--5--5--5--5--5--5-|
|------------------------|----------4--4--4--4--4-|---------------------|


-----|------------------------|------------------------|----------------|
-----|------------------------|------------------------|----------------|
--5--|-4--4--4----------------|-5--5--5--5--5--5--5--5-|-5--5--5--5--5--|
-----|----------4--4--4--4--4-|------------------------|----------------|

[ Tab from: http://www.guitartabs.cc/tabs/w/weezer/blue_album_btab.html ]
----------|------------------------|-----------------------------------|
----------|------------------------|-----------------------------------|
--5--5--5-|-5--5--5--5--5--5--5--5-|-----------------------------------|
----------|------------------------|-----------------------------------|


Out-Chorus
|-------------------------|-------------------------|
|-------------------------|-------------------------|
|-------------------------|-------------------------|
|--4--4--4--4--4--4--4--4-|-0--0--2--2--7--7--7--7--|

      play 3x
||--------------------------|------------------------------||
||o-------------------------|-----------------------------o||
||o-------------------------|-----------------------------o||
||---7--7--0--0--2--2--2--2-|-/7--7--7--2--2/7--7--7--7--7-||


|------------------------|--------------------------|
|------------------------|--------------------------|
|------------------------|--------------------------|
|-7--7--0--0--2--2--2--2-|-/7--7--7--7--2--4--2--4--|

Undone - Sweater Song

Intro

G|----------------------------------------|
D|----------------------------------------|
A|--------2----2-4----4-2----2------------|
E|-2----2---------------------------------|

Verse/Chorus

G|----------------------------------------|
D|----------------------------------------|
A|--------2-2-2-2-4-4-4-4-2-2-2-2---------|
E|-2-2-2-2--------------------------------|

Interlude

G|----------------------------------------|
D|----------------------------------------|
A|---------555-5-55777-7-77555-5-55-------|
E|-555-5-55-------------------------------|


This comes just before the guitar solo

G|------------------------------------------|
D|------------------------------------------|
A|---------2-2-2-2-4-4-4-4-2-2-0-0----------|
E|-2-2-2-2----------------------------------|

Outro

G|----------------------------------------|
D|----------------------------------------|
A|---------222222224444444422222222-------|
E|-22222222-------------------------------|

Surf Wax America

Gb|------------------------------------------------| Bass comes in after
Db|------------------------------------------------| intro and plays two
Ab|--5-5-5-7-7-5--------5-5-5-7-7-5----------------| bars of the verse.
Eb|--------------7-7-3--------------7-7-3-3-3-7----|

|-----------------------------------|
|-----------------------------------| Verse.
|--5-5-5-5-7-7-7-5------------------| Play 4x.
|------------------7-7-7-3-3-3-3-3--|

|------------------------------------------|
|------------------------------------------|
|------------------------------------------|
|--8-8-8-8-8-8-8-8-10-10-10-10-10-10-10-10-|

------------------------------------------|
------------------------------------------| Chorus,
-7-7-7-7-7-7-7-7-10-10-10-10-10-10-10-10--| played 2x.
------------------------------------------|

While the intro is played    |------------------|
again, Matt plays the roots  |------------------|
of each chord:               |---------7--10----|
           |--8--10-----------------------------|

           |-------------------------------------------------------|
Play verse four times,       |-------------------------------------|
then the chorus four times,  |----------3-3-3-3--------------------|
followed by the bridge:      |--5-5-5-5---------3-3-3-3-3-3-3-3----|
Played eight times.              "All   along the   undertow..."


Outro x4
|-----------------------------------|
|-----------------------------------|
|--3-3-3-3-3-3-2-2-------------2-2--|
|------------------3-3-3-3-3-3------|

Say it ain't so

Verse
Eb-----------------------------------|
Ab--------4-5-6----------------------|
Db----4-------------------2----------|
Gb------4-------5-0-0-2h4------------|


Chorus
Gb --------------------------------|
Db --------------------------------|
Ab --4--4--------0--0--------------|
Eb --------4--4--------0--0--0--0--|

The..."dear daddy, I write to..."part
Gb ---------------------------------------|
Db ---------------------------------------| X2
Ab --2--2--2--1--1--1---------------------|
Eb --------------------0--0--0--3--3--3---|

Then play this once and the other riff once
Gb -------------------------------------|
Db --------------4--2--1--2--2--2--5--5-|
Ab --2--2--2--1-------------------------|
Eb -------------------------------------|

In the Garage

|-----------------------------------| Verse.
|-----------------------------------|
|--3-3-3-3-3-3-5-5------------------|
|------------------0-0-0-0-0-0-0-0--|

|----------------------------------------------------------------------|
|----------------------------------------------------------------------|
|--3-3-3-3-3-3-5-5---------3-3-3-----------3-3-3-------5---------------|
|------------------3-3-3-3-------3-3-3-3-3-------3-3-3---0--0-0-0-0-0--|

----------------------| Verse continued.
----------------------|
--5-------------------|
----0--0-0-0-0-0-0-0--|

|-------------------------------------------------------------| Chorus.
|-------------------------------------------------------------|
|----------5-5-5-5-------------------------5-5-5-5-3-3-2------|
|--3-3-3-3---------5-5-5-5-0-0-0-0-3-3-3-3---------------5-3--|

------------| Chorus.
------------|
------------|
--/5--5--3--|

|---------------------------------------| This variation of the chorus is
|---------------------------------------| played two times, and only at
|----------5-5-5-5-/7-7-7-7-\3-3-3-3----| the very end of the song.
|--3-3-3-3------------------------------|

There are all the parts, now here is the layout:

Intro (no bass)
Verse (2x)
Chorus
Chorus w/o vocals
Verse (drum and bass, with Fuzz pedal on)
Chorus
Verse
Chorus (4x)

Holiday

VERSE

Gb|-------------------------------------------------|
Db|-------------------------------------------------|
Ab|-------------------------------------------------| x 3
Eb|-0-0-0-0-0-2-4-4-4-4-4-4-5-5-5-5-5-5-7-7-7-5-7-5-|

Gb|-------------------------------------------------|
Db|-------------------------------------------------|
Ab|-------------------------------------------------|
Eb|-0-0-0-0-0-2-4-4-4-4-4-4-5-5-5-5-5-5-7-7-7-7-7-7-|

CHORUS

Gb|-------------------------------------------|
Db|-----6-6-6-6-6-6---------------------------|
Ab|-----------------7-7-7-7-7-7-7-------------| (repeat as necessary)
Eb|-0-4---------------------------5-5-5-5-5-5-|

Gb|-------------------------|
Db|-------------------------|
Ab|-----------2-3-3-3-3-3-2-| (repeat as necesary)
Eb|-0-0-0-0-0---------------|

BRIDGE

Gb|--------------------|
Db|----1-2-------------|
Ab|-4--------------0-2-| (repeat)
Eb|---------2-4--4-----|

RIGHT AFTER THAT...

Gb|-------------------------|
Db|-------------------------|
Ab|-7-7-7-7-7---------------| (repeat)
Eb|-----------7-8-8-8-8-8-7-|

OUTRO

Gb|--------------------------------------|
Db|--------------------------------------|
Ab|---4-2--------------------------------|
Eb|-5-----2(bend 1/4 step and release)-0-|

In the Garage
G------------------------------------------------------------------------------|
D--------0h2-2-2-2-2p0------------------------0h2-2-2-2-2p0--------------------|
A--2-2-2---------------0-0-0-00-5-5-3-3-2-2-2---------------0-0-0-00-5-5-3-3---|
E------------------------------------------------------------------------------|


--------------------------------------------------------------------------5-----|
--------0h2-2-2-2-2p0------------------------0h2-2-2-2-2p0----------------------|
--2-2-2---------------0-0-0-00-5-5-3-3-2-2-2---------------0-0-0-00-5-5-3-------|
--------------------------------------------------------------------------------|


Repeat until chorus:

G-------------------------------------------------------------------------------|
--------------------------------------------------------------------------------|
--1-1-1-1-1-------3-3-3-3-3-2-2-0-----------3-3-4-5-----------------------------|
------------3-3-3-----------------3-3-3-3-3-------------------------------------|

Alternate chorus (Later in song)

G-------------------------------------------------------------------------------|
D-------------------------------------------------------------------------------|
A--222222/7777777777-00000000-5555-3333-222222/7777777777-00000000-5555-3333-2--|
E-------------------------------------------------------------------------------|


END

G----------------------------------------------------------------------|
D--------0h2-2-2-2-2p0-------------------------------------------------|
A--2-2-2---------------0-0-0-00-5-5-3-3--------------------------------|
E---------------------------------------3------------------------------|
Comments