Weezer - Blast Off Chords & Tabs

 

Blast Off Chords & Tabs

Weezer Chords & Tabs

Version: 1 Type: Tab

Blast Off Tab

-------------------------------------------------------------------------------
			     “Blast Off” - Weezer
-------------------------------------------------------------------------------

Tabbed by: Edgar

Email: A3oooBenjamin@yahoo.com


Verse:
e|------------------------------------------------------------------------| 
B|------------------------------------------------------------------------| 
G|--8----------------3-3----8----------------3-3----8----------------3-3--| 
D|--8----6-6----3----3-3----8----6-6----3----3-3----8----6-6----3----3-3--| 
A|--6----6-6----3----1-1----6----6-6----3----1-1----6----6-6----3----1-1--| 
E|-------4-4----1----------------4-4----1----------------4-4----1---------|
[ Tab from: http://www.guitartabs.cc/tabs/w/weezer/blast_off_tab.html ]
e|---------------------------------------------------------------------| 
B|---------------------------------------------------------------------| 
G|--5-----------------3-3--3-3-3-3-------------------------------------| 
D|--5----3-3----6-----3-3--3-3-3-3-------------------------------------| 
A|--3----3-3----6-----1-1--1-1-1-1-------------------------------------| 
E|-------1-1----4------------------------------------------------------|


Bridge:
e|----------------------------------------------------------------------| 
B|----------------------------------------------------------------------| 
G|--6-6-6-6-6-6-6-6-------------------8-8-8-8-8-8-8-8-------------------| 
D|--6-6-6-6-6-6-6-6--4-4-4-4-4-4-4-4--8-8-8-8-8-8-8-8--6-6-6-6-6-6-6-6--| 
A|--4-4-4-4-4-4-4-4--4-4-4-4-4-4-4-4--6-6-6-6-6-6-6-6--6-6-6-6-6-6-6-6--| 
E|-------------------2-2-2-2-2-2-2-2-------------------4-4-4-4-4-4-4-4--|


Song Order:
Verse (x2)
Bridge (x1)
Verse (x1)
Bridge (x1)
Breakdown (x1)(Note)


Note: I couldn’t really get the part where everything gets quiet…maybe some other
time…but other than that, this is pretty much that's most important part. E-mail
for any corrections…even though I probably won’t do anything about it…so yeah…